Cifras Web
Chrono Cross

A Narrow Space Between Dimensions

Chrono Cross

33 acessos

(afinação - D)


|------------|----------|---------|------------|------------|-----------|
|------------|----------|---------|------------|------------|-----------|
|-2----------|-0--------|---------|------------|-2----------|-0-----2---|
|------0-2-4-|-------2--|-0-------|--0------0--|------0-2-4-|-0--4------|
|----0-------|----4-----|----0----|------0-----|----0-------|-2--5------|
|-0----------|-0--------|-0--5----|--0---5-----|-0----------|-5---------|



|---------|-----------|------------|----------|---------|----------|
|---------|-----------|------------|----------|---------|----------|
|---------|-----------|-2----------|-0--------|---------|----------|
|-2-------|--2-----0--|------0-2-4-|-------2--|-4-------|----------|
|-5-------|--4--------|----0-------|-2--4-----|-5-------|-2--------|
|---------|-----------|-0----------|----------|-7-------|-0--2--4--|



|---------|---------|---------|------------|----------|---------|
|---------|---------|---------|------------|----3--2--|-0-------|
|---------|---------|---------|----------0-|-2--------|------2--|
|-0----4--|-2----0--|-0-------|--0-----4---|-4--------|-0-------|
|-2-------|-2-------|-0-------|--0---------|-5--------|---------|
|-5-------|-5-------|-5-------|--4---------|----------|---------|



|---------|----------|----------|-----------|---------|----------|
|---------|----------|----0-----|-----------|---------|----------|
|-2-------|-------0--|----------|-----------|---------|--------0-|
|-2-------|-2--4-----|-4-----4--|-0----2-4--|-0-------|------4---|
|-5-------|-4--------|-5--------|-2---------|-7-------|-4--------|
|---------|-5--------|-7--------|-5---------|-7-------|-7--------|



|----------|----------|----------|----------|---------|----------|
|----3--2--|-0--------|----------|----------|---------|----------|
|-2--------|-------2--|-2--------|---0------|---------|-------0--|
|-4--------|----------|-2----0-2-|-4---4----|-0-------|----4-----|
|-5--------|----2-----|-4--------|-5--------|-0-------|-2--------|
|----------|-5--------|------5---|-7--------|---------|-5--------|



|---------|---------|------------|----------|---------|------------|
|---------|---------|------------|----------|---------|------------|
|---------|---------|-2----------|-0--------|---------|------------|
|-2-------|---------|------0-2-4-|-------2--|-0-------|--0------0--|
|-5-------|-4----0--|----0-------|----4-----|----0----|------0-----|
|-5-------|---------|-0----------|-0--------|-0--5----|--0---5-----|



|------------|----------|---------|-----------|----------|-0--------|
|------------|----------|---------|-----------|----3--2--|----3-----|
|-2----------|-0-----2--|---------|-----------|-2--------|-------2--|
|------0-2-4-|-0--4-----|-2-------|--2-----0--|----------|----------|
|----0-------|-2--5-----|-5-------|--4--------|----------|-2--------|
|-0----------|-5--------|---------|-----------|-0--------|----------|


|---------|----------|----------|----------|
|-2-------|----------|----------|----------|
|----2----|----0-----|----------|----------|
|----4----|-2-----4--|-2--------|-4--------|
|-4-------|-0--------|-0---5-4--|-5--------|
|---------|----------|-5--------|-7--------|

TOP cifras de Chrono Cross

  1. Dream Of The Shore Near Another World
  2. Time Scar
  3. Another Guldove
  4. Main Title
  5. A Narrow Space Between Dimensions
  6. Leaving The Body
  7. Magical Dreamers
  8. Bend Of Time
  9. Lost Before Light
  10. Radical Dreamers

Pela Web