Cifras Web
Chrono Cross

Nikkis Concert

Chrono Cross

13 acessos


E|------------7---8-8/10---------------7-8-7h8p7--
B|--8/10-----10--------------10-----10-----------8
G|------------------------------------------------
D|------------------------------------------------
A|------------------------------------------------
E|------------------------------------------------



E|--------------7---8-8/10--7--7/12--13--12h13p12--10--8--10--8h10p8--7
B|--8/10-----10--------------------------------------------------------
G|---------------------------------------------------------------------
D|---------------------------------------------------------------------
A|---------------------------------------------------------------------
E|---------------------------------------------------------------------



E|--------------7---8-8/10---------------7-8-7h8p7--
B|--8/10-----10--------------8/10-----10-----------8
G|--------------------------------------------------
D|--------------------------------------------------
A|--------------------------------------------------
E|--------------------------------------------------



E|--------------7---8-8/10--7------
B|--8/10-----10----------------8/10
G|---------------------------------
D|---------------------------------
A|---------------------------------
E|---------------------------------



E|-----------------5--------------------------------------------
B|---------8--8--8---5/8-6-5-6----------6--6--5--3h5p3-----3-5-3
G|--5---7--------------------7--5--7------------------5---------
D|--------------------------------------------------------------
A|--------------------------------------------------------------
E|--------------------------------------------------------------



E|-----------------5------------------8--8--7-5---------------
B|---------8--8--8---5/8-6-5-6--------------------8--6--8-----
G|--5---7----------------------7--5--7------------------------
D|------------------------------------------------------------
A|------------------------------------------------------------
E|------------------------------------------------------------



E|------------7---8-10---------------7-8-7h8p7----
B|--*10-----10--------------*10-----10-----------8
G|------------------------------------------------
D|------------------------------------------------
A|------------------------------------------------
E|------------------------------------------------



E|------------7---8-10--7--12--13--12h13p12--10--8--10--8h10p8--7-
B|--*10-----10----------------------------------------------------
G|----------------------------------------------------------------
D|----------------------------------------------------------------
A|----------------------------------------------------------------
E|----------------------------------------------------------------



E|------------7---8-10---------------7-8-7h8p7----
B|--*10-----10--------------*10-----10-----------8
G|------------------------------------------------
D|------------------------------------------------
A|------------------------------------------------
E|------------------------------------------------



E|------------7---8-10--7------
B|--*10-----10--------------*10
G|-----------------------------
D|-----------------------------
A|-----------------------------
E|-----------------------------


/ = Slide
h = hammer on
p = pull off
* = harmônico

TOP cifras de Chrono Cross

  1. Dream Of The Shore Near Another World
  2. Time Scar
  3. Another Guldove
  4. Main Title
  5. A Narrow Space Between Dimensions
  6. Leaving The Body
  7. Magical Dreamers
  8. Bend Of Time
  9. Lost Before Light
  10. Radical Dreamers

Pela Web