Cifras Web
Chuck Ragan

Boat

Chuck Ragan

38 acessos

he slides a lot of the chords, just listen for that and the strumming.

Intro:

--x----x----x----x----x----x----x----x----x----x----x-|
--x----x----x----x----x----x----x----x----x----x----x-|
--4----6----4----6----6----4----6----4----6----4----6-|
--4----6----4----7----6----4----6----4----6----4----6-|
--2----4----2----7----4----2----4----2----4----2----4-|
--x----x----x----5----x----x----x----x----x----x----x-|


Verse:

--x----x----x----x----x----x----x----x----x----x----x-|
--x----x----x----x----x----x----x----x----x----x----x-|
--4----6----4----6----6----4----6----4----6----4----6-|
--4----6----4----7----6----4----6----4----6----4----6-|
--2----4----2----7----4----2----4----2----4----2----4-|
--x----x----x----5----x----x----x----x----x----x----x-|

"Some days, were ripped and torn away..."


Chorus:

--x----x----x----x----x----x----x----x----x----x----x----x----x----x----x-|
--x----x----x----x----x----x----x----x----x----x----x----x----x----x----x-|
--6----4----6----4----6----4----6----4----6----4----6----6----6----6----4-|
--7----4----6----4----7----4----6----4----7----4----6----7----7----6----4-|
--7----2----4----2----7----2----4----2----7----2----4----7----7----4----2-|
--5----x----x----x----5----x----x----x----5----x----x----5----5----x----x-|


"I feel it in my bones when the storm is close..."

TOP cifras de Chuck Ragan

  1. Boat
  2. Its What You Will
  3. God Deciding
  4. Congratulations Joe
  5. Don't Cry
  6. Hearts Of Stone
  7. For Broken Ears
  8. Landsick
  9. The Flame In The Flood

Pela Web