Cifras Web
Cine

Flashback

Cine

8 acessos

(versão - EP 80's)


  Bb B F# G# Bb B C# Eb E Eb (2x)    Em F# E
E |-----------------------------|-----------|
B |-----------------------------|-----------|
G |-3~4---------3~4--6--8--9\8--|-----11-9--|
D |-x~x--4~6~8--x~x--x--x--x\x--|-----x--x--|
A |-1~2--x~6~x--1~2--4--6--7\6--|--2~-9--7--|
E |------2~4~6------------------|--0~-------|


Em (abafado)
E eu falei,
Que ainda quebra a cara e não foi por mal

E    F# G# F#               B
não duvidei, que aquele seu amigo pagava um pau,

(riff 1)

E |---------------|
B |-4-4-4-4/5\4---|
G |--4-4-4--------|
D |---------------|
A |---------------|
E |---------------|


(riff 1)
nem pela questão do tempo, hoje eu vejo que foi só momento

G# B C# B Em
e eu só lamento, só lamento, só lamento

com a grana do papai,
com o carrinho do papai,
cheio de tchutchutchuru

B C# Em F# G# F#
se ajeite no banco de trás, do meu lado, nunca mais


  Eb Em B C# Eb Em B C#
E |-------------------------|
B |-------------------------|
G |-8~-----4-6-8~-----4-6---|
D |-x~-----x-x-x~-----x-x---|
A |-6~2-2--2-4-6~2-2--2-4---|
E |---0-0--------0-0--------|



  Bb B F# G# Bb B C# Eb E F#
E |-------------------------------|
B |-------------------------------|
G |-3~4---------3~4--6--8--9--11--|
D |-x~x--4~6~8--x~x--x--x--x--x---|
A |-1~2--x~6~x--1~2--4--6--7--6---|
E |------2~4~6--------------------|


Em (abafado)
vai pro francês, tenta pagar de gringo é sensacional,
Em (abafado)
já ta no Mês, dele vazar pra europa e se achar o tal,

(riff 2)

E |----------2--2--2--|
B |-4-4-4-4----4--4---|
G |--4-4-4-4--4--4----|
D |-------------------|
A |-------------------|
E |-------------------|


(riff 2)
depende da questão dinheiro, enquanto eu represento com talento

G# B C# B Em
e eu só lamento, só lamento, só lamento

chega pra dançar, quero ver tu rebolar,
chega de tchutchutchuru

B C# Em F# G# F#
se ajeite no banco de trás, do meu lado, nunca mais


  G# B C# F# G# F# Em B C# Eb F#
E |--------------------------------------|
B |--------------------------------------|
G |-------4-4/6-6--------------4-6-8-11--|
D |--6-6--x-x/x-x--4/6\4-------x-x-x-x---|
A |--x-x--2-2/4-4--x/x\x--2-2--2-4-6-9---|
E |--4-4-----------2/4\2--0-0------------|



  G# B C# F# G# F# Em B C# Eb E Eb
E |---------------------------------------|
B |---------------------------------------|
G |-------4-4/6-6--------------4-6-8/9\8--|
D |--6-6--x-x/x-x--4/6\4-------x-x-x/x\x--|
A |--x-x--2-2/4-4--x/x\x--2-2--2-4-6/7\6--|
E |--4-4-----------2/4\2--0-0-------------|



  G# B C# F# G# F# Em B Em B
E |-----------------------------------------------------|
B |-----------------------------------------------------|
G |-------4-4/6-6--------------4-4-4-4---------4-4-4-4--|
D |--6-6--x-x/x-x--4/6\4-------x-x-x-x---------x-x-x-x--|
A |--x-x--2-2/4-4--x/x\x--2-2--2-2-2-2--2-2-2--2-2-2-2--|
E |--4-4-----------2/4\2--0-0-----------0-0-0-----------|


se um dia eu quiser com certeza eu falo, (2x)
mais que nunca mais, nunca mais.


  Segura no B (Si) (varias vezes)
E |-------|
B |-------|
G |--4-4--|
D |--x-x--|
A |--2-2--|
E |--0-0--|



  Em F# G# A (2x)
E |-----------------------------|
B |-----------------------------|
G |-----------------------------|
D |-----------4/6-6-6--7-7-7-7--|
A |--2-2-2-2--x/6-6-6--7-7-7-7--|
E |--0-0-0-0--2/4-4-4--5-5-5-5--|


Iêiee e eeeheee, iêiee ei eiei eieiêê...

(solo final)

E |--0-0-0-0-0-0-0-0-0-0-0-0-0-0-0-0-0-0-0-0-0----|
B |--5-5-5-5-5/9-9-9-9-9-9\4-4-4-4-4/5-5-5-5-5\0--|
G |-----------------------------------------------|
D |-----------------------------------------------|
A |-----------------------------------------------|
E |-----------------------------------------------|


FIM

TOP cifras de Cine

  1. Praia e sol
  2. Garota Radical
  3. Você É Um Vicio
  4. Chamada Perdida
  5. Se Eu Pudesse
  6. Nunca Ninguém Morreu de Amor
  7. Shiu!
  8. A Noite Inteira
  9. A Usurpadora
  10. As Cores

Pela Web