Cifras Web
Claude Debussy

2nd Arabesque

Claude Debussy

10 acessos

Tabbed by: Unknown



|-------------17h19p17----------------17h19p17-----|-------------19h20p19---
|-17h19p17----------------17h19p17-----------------|-17h19p17---------------
|----------------------19----------------------19--|----------------------19
|----------19----------------------19--------------|----------21------------
|--------------------------------------------------|------------------------
|--------------------------------------------------|------------------------




-------------19h20p19-----|-------------20h22p20----------------20h22p20---|
-17h19p17-----------------|-17h19p17----------------17h19p17---------------|
----------------------19--|----------17----------19----------17----------19|
----------21--------------|------------------------------------------------|
--------------------------|------------------------------------------------|
--------------------------|------------------------------------------------|




|-------------------------------------------------|
|-17h19p17----15h17p15----12h13p12----10h12p10----|
|-------------------------------------------------|
|----------21----------17----------12----------14-|
|-------------------------------------------------|
|-------------------------------------------------|




|-15h17p15--------------------------14-15h17p15----|------------------------
|----------17--13-------------12h16-------------17-|-13----------------15h19
|-----------------12-------------------------------|----12------------------
|--------------------14p13-16----------------------|-------14----16h19------
|--------------------------------------------------|----------17------------
|--------------------------------------------------|------------------------



-12h14p12-------------|--------------|
----------13----------|------12-15~--|
-------------14-------|---13---------|
----------------14----|12------------|
-------------------15-|--------------|
----------------------|--------------|

TOP cifras de Claude Debussy

  1. La Fille Aux Cheveaux De Lin
  2. Reverie
  3. Claire De Lune
  4. Girl With The Flaxen Hair
  5. 2nd Arabesque
  6. Clair De Lune
  7. Images

Pela Web