Cifras Web
Claude Debussy

Images

Claude Debussy

8 acessos

Tabbed by: Unknown (*)



|------------------------------------------------19-------------------------
|-------------------10-----------10--------18-22----22-18--------10---------
|----------------10-----------10--------18----------------18--------10------
|-------7-----11-----------11--------21----------------------21--------11---
|-----8----14-----------14------------------------------------------------14
|-7-9-----------------------------------------------------------------------




------------------------|---------------------------------------------------
-10---------------------|-------------------10-----------10-------18-22-----
----10------------------|----------------10-----------10-------18-----------
-------11---------------|-------7-----11-----------11-------21--------------
----------14-12-9-------|-----8----14-----------14--------------------------
------------------9-----|-7-9-----------------------------------------------




|-19---------------------------------------------------|
|----22-18--------10------------10---------------------|
|----------18--------10------------10------------------|
|-------------21--------11------------11---------------|
|--------------------------14------------14-12-9-------|
|------------------------------------------------9-----|




|-------------------------------------------|-------------------------------
|-------------------10-12-10----------------|-------------------10-12-10----
|----------------10----------10-------------|----------------10----------10-
|-------7-----11----------------11-9--------|-------7-----11----------------
|-----8----14------------------------12-9---|-----8----14-------------------
|-7-9-------------------------------------9-|-7-9---------------------------




--------------|-----------------------------14-17----17-14------------------
--------------|-----------------------14-16-------14-------16-14------------
--------------|-----------------11-14----------------------------14-11------
-11-9---------|-----------11-13----------------------------------------13-11
------12-9----|------9-12---------------------------------------------------
-----------9--|-7-11--------------------------------------------------------




----------|-----------------------------14-17----17-14----------------------
----------|-----------------------14-16-------14-------16-14----------------
----------|-----------------11-14----------------------------14-11----------
----------|-----------11-13----------------------------------------13-11----
-12-9-----|------9-12-------------------------------------------------------
------11--|-7-11------------------------------------------------------------




----------|---------------------------------------|-------------------------
----------|-------------------10------------------|-------------------10----
----------|--------------7-11----11-7-------------|--------------8-11----11-
----------|---------7-10--------------10-7--------|---------7-10------------
-12-9-----|-----5-9------------------------9-5----|-----6-9-----------------
------11--|-5-8--------------------------------8--|-4-8---------------------



--------------|
--------------|
-8------------|
---10-7-------|
--------9-6---|
------------8-|

TOP cifras de Claude Debussy

  1. La Fille Aux Cheveaux De Lin
  2. Reverie
  3. Claire De Lune
  4. Girl With The Flaxen Hair
  5. 2nd Arabesque
  6. Clair De Lune
  7. Images

Pela Web