Cifras Web
Clint Mansell

Requiem For A Dream Summer Overture

Clint Mansell

7 acessos

INTRO                           FILL

e----------------------          e------------------------------------------|
B----------------------          B------------------------------------------|
G----------------------          G------------------------------------------|
D--5-----8----10-------          D12---14--15--12---12--17--15--14--12------|
A--5-----8----10-------          A------------------------------------------|
E--3-----6-----8-------          E------------------------------------------|



MAIN

e--------------------------------------------------------|
B--------------------------------------------------------|
G--------------------------------------------------------|
D--5---8-----10---5----3---8-----------------------------|
A--5---8------8---5----3---8-----------------------------|
E--3---6------8---3----1---6-----------------------------|



VIOLIN

e--6-3---6-3-6-3---6-3-6-3-----6-3-6-3-6-3-6-3-6-3-|
B--------------------------------------------------|
G--------------------------------------------------|
D--------------------------------------------------|
A--------------------------------------------------|
E--------------------------------------------------|



e--6-5---6-5-6-5---6-5-6-5-----6-5-6-5-6-5-6-5-6-5-|
B--------------------------------------------------|
G--------------------------------------------------|
D--------------------------------------------------|
A--------------------------------------------------|
E--------------------------------------------------|



e-6-6-6-5-5-3---6-6-6-5-5-3---6-6-6-5-5-3---3-3-3-5-5-5/6-6-6-|
B-------------------------------------------------------------|
G-------------------------------------------------------------|
D-------------------------------------------------------------|
A-------------------------------------------------------------|


Well thats all any questions or comments reach me at *
E-------------------------------------------------

Top cifras de Clint Mansell

  1. Dead Reckoning
  2. First Person Shooter
  3. Requiem For A Dream
  4. Requiem For A Dream Summer Overture

Pela Web