Cifras Web
Coal Chamber

El Cu Cuy

Coal Chamber

8 acessos

Tuning  (A E A D G B) low to high
  
 Intro                                                               Play  2x

B|---------------------------------------------------------------------------|
G|---------------------------------------------------------------------------|
D|---------------------------------------------------------------------------|
A|---------------------------------------------------------------------------|
E|---------------------------------------------------------------------------|
A|--4-4-4-2-4-4-2-4---2-4--2-4-5------4-4-4-2-4-4-2-4---2-4--5-4-2-----------|


                                                                     Play  4x

B|---------------------------------------------------------------------------|
G|---------------------------------------------------------------------------|
D|---------------------------------------------------------------------------|
A|---------------------------------------------------------------------------|
E|--4-4-4-2-4-4-2-4---2-4--2-4-5------4-4-4-2-4-4-2-4---2-4--5-4-2-----------|
A|--4-4-4-2-4-4-2-4---2-4--2-4-5------4-4-4-2-4-4-2-4---2-4--5-4-2-----------|

                                                                                 
Verses 1,2,3                                                        Play  4x

B|---------------------------------------------------------------------------|
G|---------------------------------------------------------------------------|
D|---------------------------------------------------------------------------|
A|---------------------------------------------------------------------------|
E|---------------------------------------------------------------------------|
A|--4-4-4-2-4-4-2-4---2-4--2-4-5------4-4-4-2-4-4-2-4---2-4--5-4-2-----------|


 Chorus                                                              Play  2x

B|---------------------------------------------------------------------------|
G|---------------------------------------------------------------------------|
D|---------------------------------------------------------------------------|
A|---------------------------------------------------------------------------|
E|--4-4-4-2-4-4-2-4---2-4--2-4-5------4-4-4-2-4-4-2-4---2-4--5-4-2-----------|
A|--4-4-4-2-4-4-2-4---2-4--2-4-5------4-4-4-2-4-4-2-4---2-4--5-4-2-----------|


 Bridge                                                              Play  4x

B|---------------------------------------------------------------------------|
G|---------------------------------------------------------------------------|
D|---------------------------------------------------------------------------|
A|---------------------------------------------------------------------------|
E|--8-7-7--7---8--7-7--7--7--8-8---------------------------------------------|
A|--8-7-7--7---8--7-7--7--7--8-8---------------------------------------------|


That is all i got of this song. But it is 100% correct.

TOP cifras de Coal Chamber

  1. Untrue
  2. My Mercy
  3. Alienate Me
  4. Beckoned
  5. First
  6. One Step
  7. Fiend
  8. High Speed
  9. Loco
  10. Notion

Pela Web