Cifras Web
Coal Chamber

Entwined

Coal Chamber

10 acessos

INTRO/MAIN RIFF:


B|---------------------------------------------|
G|---------------------------------------------|
D|---------------------------------------------|
A|-4-4-------------------4-4-------------------|
E|-4-4-------------------4-4-------------------|
B|-2-2-4p2-2-4p2-2-4-2-2-2-2-4p2-2-4p2-2-4-2-2-|


FILL:

B|---|
G|---|
D|---|
A|-4-|
E|-4-|
B|-2-|

CHORUS:


B|------------------------------------------------------------|
G|------------------------------------------------------------|
D|------------------------------------------------------------|
A|-9--8--6--8--9--8--6--8--9--8--6--8--9--8--6--8--9-let ring-|
E|-9--8--6--8--9--8--6--8--9--8--6--8--9--8--6--8--9----------|
B|-7--6--4--6--7--6--4--6--7--6--4--6--7--6--4--6--7----------|


BRIDGE:

B|-------------------------------------------------|
G|-------------------------------------------------|
D|-------------------------------------------------|
A|-------------------------------------------------|
E|-------------------------------------------------|
B|-2-4p2--4p2-4p2-4p2-2-4--2-4p2--4p2-4p2-4p2-2-4--|

TOP cifras de Coal Chamber

  1. Untrue
  2. My Mercy
  3. Alienate Me
  4. Beckoned
  5. First
  6. One Step
  7. Fiend
  8. High Speed
  9. Loco
  10. Notion

Pela Web