Cifras Web
Coal Chamber

Oddity

Coal Chamber

9 acessos

INTRO:



 E|--------------------------------|
 B|--------------------------------|
 G|-5-5--5--6--5-5--5--6-5-6-------|
 D|-5-5--5--6--5-5--5--6-5-6-------|
 A|-3-3--3--4--3-3--3--4-3-4-------|
 E|--------------------------------|

Um pouco antes dele começar a cantar, outra guitarra fica tocando:

 G|--3----| varias vezes


 Quando começar a cantar, o guitarrista toca um B em Power Chords 

 E|--------|
 B|--------|
 G|--5-5---|
 D|--5-5---|
 A|--3-3---|
 E|--------|
Refrão:

 E|----------------------------|
 B|----------------------------|
 G|--5-5--5--6--5-5--5--6-5-6--|
 D|--5-5--5--6--5-5--5--6-5-6--|
 A|--3-3--3--4--3-3--3--4-3-4--|
 E|----------------------------|

Depois do refrão repete:

 G|-5-5--|
 D|-5-5--|
 A|-3-3--|



 E|-----------------|
 B|-----------------|
 G|-----------------|
 D|-7/8-------------|
 A|-7/8-------------|
 E|-5/6-------------|



 E|------------|
 B|------4-----|
 G|------------|
 D|-7----------|
 A|-7----------|
 E|-5----------|
 

 E|----------------|
 B|----------------|
 G|----------------|
 D|-7-10--8-10--7--|
 A|-7-10--8-10--7--|
 E|-5--8--6--8--5--|

|------------------|
|------------------|
|-9----------------|
|-9-7-9-10-9-7-----|
|-7-7-9-10-9-7-----|
|---5-7--8-7-5-----|

TOP cifras de Coal Chamber

  1. Untrue
  2. My Mercy
  3. Alienate Me
  4. Beckoned
  5. First
  6. One Step
  7. Fiend
  8. High Speed
  9. Loco
  10. Notion

Pela Web