Cifras Web
Comeback Kid

Wake The Dead

Comeback Kid

13 acessos

this is the only tab out there that has a guitar 2 so it may not be tottaly correct but
better than the rest  here goes.......

intro pt 1 guitars 1,2

e----------------------------------|
b----------------------------------|
g77---7-77--------55---7-77--------|
dxx-0-x-xx-1p0-00-xx-0-x-xx-1p0-00-|
a55-0-5-55-1p0-00-33-0-5-55-1p0-00-|
d---0------1p0-00----0------1p0-00-|


intro pt 2 guitars 1,2

e---------------------------------------------------------|
b---------------------------------------------------------|
g15151515-14-12-101010-999-15151515-14-12-101010-14/15/14-|
dxxxxxxxx-xx-xx-x-x-x--xxx-xxxxxxxx-xx-xx-x-x-x--xx-xx-xx-|
a13131313-12-10-8-8-8--777-13131313-12-10-8-8-8--12/13/12-|
d---------------------------------------------------------|


guitar 1
e
b
g

d0~-------------------|
a0~-------------------|
d0~-------------------|pick slide


guitar 2

e------------------------|
b----------14------------|????
g14~-------14------------|           i really dont know about that
dxx--------xx------------|
a12~-------12------------|
d------------------------|


verse guitar 1

e------------------------------------------|
b------------------------------------------|
g7777-1010-9999-1010-99999999-------101010-|
dxxxx-xxxx-xxxx-xxxx-xxxxxxxx-0000-xx-x-x--|
a5555-8888-7777-8888-77777777-0000-x8-8-8--|
d-----------------------------0000-x-------|



e-----------------------------------------|
b-----------------------------------------|
g7777-1010-9999-1010-99999999-------------|
dxxxx-xxxx-xxxx-xxxx-xxxxxxxx-0000-x33x55-|
a5555-8888-7777-8888-77777777-0000-x33x55-|
d-----------------------------0000-x33x55-|



e-----------------------------------------------|
b-----------------------------------------------|
g7777-9999-12121212-14141414-99999999-----------|
dxxxx-xxxx-xxxxxxxx-xxxxxxxx-xxxxxxxx-3333-5555-|
a5555-7777-10101010-12121212-77777777-3333-5555-|
d-------------------------------------3333-5555-|



e--------------------------------------------------|
b--------------------------------------------------|

g777---999----12121212-14141414-99999999-----------|
dxxx---xxx----xxxxxxxx-xxxxxxxx-xxxxxxxx-3333-3-55-|
a555xxx777xxx-10101010-12121212-77777777-3333-3-55-|
d---xxx---xxx----------------------------3333-3-55-|

e-------------------------------------------------------|
b-------------------------------------------------------|
g99-77-99-1010------------------------------------------|
dxx-xx-xx-x-xx        x 2            wait for guitar 2--|
a77-55-77-8-88------------------------------------------|                       play 
right before the chorus

d-------------------------------------------------------|


verse guitar 2

e-----------------------------------------|
b-----------------------------------------|
g77777777--------------------------101010-|
dxxxxxxxx-55555555-88888888-0000---x-x-x--|
a55555555-55555555-88888888-0000-x-8-8-8--|
d---------55555555-88888888-0000-x--------|



e--------------------------------------|
b--------------------------------------|
g77777777------------------------------|
dxxxxxxxx-55555555-88888888-0000x33x55-|
a55555555-55555555-88888888-0000x33x55-|
d---------55555555-88888888-0000x33x55-|



e-------------------------------------|
b-------------------------------------|
g77777777-----------------------------|
dxxxxxxxx-55555555-88888888-3333-5555-|
a55555555-55555555-88888888-3333-5555-|
d---------55555555-88888888-3333-5555-|



e-------------------------------------|
b-------------------------------------|
g77777777-----------------------------|
dxxxxxxxx-55555555-88888888-3333-3-55-|
a55555555-55555555-88888888-3333-3-55-|
d---------55555555-88888888-3333-3-55-|



e--------------------------------------------------|
b--------------------------------------------------|

g10101010101010101010101010101010101010101010101010
dxxxxxxxxxxxxxxxxxxxxxxxxxxxxxxxxxxxxxxxxxxxxxxxxx-
a8888888888888888888888888888888888888888888888888-

d--------------------------------------------------



chorus pt 1

e----------------------------------|
b----------------------------------|
g77---7-77--------55---7-77--------|
dxx-0-x-xx-1p0-00-xx-0-x-xx-1p0-00-|
a55-0-5-55-1p0-00-33-0-5-55-1p0-00-|
d---0------1p0-00----0------1p0-00-|


chorus pt 2 guitars 1,2

e---------------------------------------------------------|
b---------------------------------------------------------|
g15151515-14-12-101010-999-15151515-14-12-101010-14/15/14-|
dxxxxxxxx-xx-xx-x-x-x--xxx-xxxxxxxx-xx-xx-x-x-x--xx-xx-xx-|
a13131313-12-10-8-8-8--777-13131313-12-10-8-8-8--12/13/12-|
d---------------------------------------------------------|



bridge

guitar 2

e----------------------|
b--------------14------| bend
g14~-------------------|
dx---------------------|
a12~-------------------|
d----------------------|


guitar 1

e-----------------------------------------|
b-----------------------------------------|
g-------------7~---5-7777-9999------------|
dxxx5~xxx8~xxxx-xxxx-xxxx-xxxx-xxx5~xxx8~-|
axxx5~xxx8~xxx5~xxx3-5555-7777-xxx5~xxx8~-|
dxxx5~xxx8~xxx--xxx------------xxx5~xxx8~-|


guitars 1,2
e-----
b-----
g7----
dx-0-8~
a5-0-8~
d--0-8~

e---------|
b---------|
g7--------|
dx-0-8-0~-|
a5-0-8-0~-|
d--0-8-0~-|

guitar 2
e-----
b-----
g7----
dx-0-8~
a5-0-8~
d--0-8~

guitar 1

e-----------------------|
b-----------------------|
g7-----777777777-101010-|
dx-0-8-xxxxxxxxx-xxxxx--|
a5-0-8-555555555-88888--|
d--0-8------------------|


guitar 1,2

e--------------------------|
b--------------------------|
g7-------------------------|
dx-0-8-0-00-00-00-00-00-00-|
a5-0-8-0-00-00-00-00-00-00-|
d--0-8-0-00-00-00-00-00-00-|


guitar 2
e-----
b-----
g7----
dx-0-8~
a5-0-8~
d--0-8~

guitar 1

e-----------------------|
b-----------------------|
g7-----777777777-101010-|
dx-0-8-xxxxxxxxx-xxxxx--|
a5-0-8-555555555-88888--|
d--0-8------------------|


guitar 1,2

e--------------------------|
b--------------------------|
g7-------------------------|
dx-0-8-0-00-00-00-00-00-00-|
a5-0-8-0-00-00-00-00-00-00-|
d--0-8-0-00-00-00-00-00-00-|


guitar 2
e-----
b-----
g7----
dx-0-8~
a5-0-8~
d--0-8~

guitar 1

e--------------------------------|
b--------------------------------|
g7-----1414141414141414-12121212-|
dx-0-8-xxxxxxxxxxxxxxxx-xxxxxxxx-|
a5-0-8-1212121212121212-10101010-|
d--0-8---------------------------|


guitar 1,2

e--------------------------|
b--------------------------|
g7-------------------------|
dx-0-8-0-00-00-00-00-00-00-|
a5-0-8-0-00-00-00-00-00-00-|
d--0-8-0-00-00-00-00-00-00-|


guitar 2
e-----
b-----
g7----
dx-0-8~
a5-0-8~
d--0-8~

guitar 1

e--------------------------------|
b--------------------------------|
g7-----1212121212121212-14141414-|
dx-0-8-xxxxxxxxxxxxxxxx-xxxxxxxx-|
a5-0-8-1010101010101010-12121212-|
d--0-8---------------------------|


guitar 1    mute off and on all the way through

e--------------------------------------------------------------|
b--------------------------------------------------------------|
g1212121212121212121212121212121212121212-141414141414141414-14~
dxxxxxxxxxxxxxxxxxxxxxxxxxxxxxxxxxxxxxxxx-xxxxxxxxxxxxxxxxxx-xx    rise!!!
a1010101010101010101010101010101010101010-121212121212121212-12~
d--------------------------------------------------------------


final chorus
guitars 1,2

e--------------------------|
b--------------------------|
g77777777------------------|
dxxxxxxxx-55555555-88888888           x4 for guitar 2
a55555555-55555555-88888888
d---------55555555-88888888


guitar 1 does this after that

e----------------------------|
b----------------------------|
g7777-9999-------------------|
dxxxx-xxxx-55555555-88888888-|
a5555-7777-55555555-88888888-|
d----------55555555-88888888-|



e-------------------------------------|
b-------------------------------------|
g7777-99-10---------------------------|
dxxxx-xx-xx-555555555-888888888-------|      x2
a5555-77-88-555555555-888888888-------|
d-----------555555555-888888888-------|


guitars 1(and or)2
e--
b--
g7~
dx-
a5~
d--

TOP cifras de Comeback Kid

  1. All In A Year
  2. Hailing On Me
  3. Trouble I Love
  4. Wake The Dead
  5. Give And Take
  6. Partners In Crime
  7. Bright Lights Keep Shining
  8. Without A Word
  9. My Other Side
  10. Die Tonight

Pela Web