Cifras Web
COMPANHIA do FORRÓ

Estrela Cadente

COMPANHIA do FORRÓ

10 acessos

Intro 2x: Am  F  E

Primeira Parte:
Am
A porta vai se abrir
F
Eu quero entrar com você
E                               Am  E
Você não pode impedir de acontecer
Am
O que será esse amor?
F
Só as estrelas dirão
         E
Feito a gente

Podem outros tentar
           F    G
Não se amarão

Refrão:
F                        C
  O nosso amor é raio luzente
           G              Am
Estrela cadente na escuridão
F                         C
  Um beijo seu um rio de mel
              G              F
Me leva pro céu me tira do chão


Solo: Am  F  E
E|---------------------------------------------------|
B|---------------------------------------------------|
G|-7/9-9-9-9\7-5-7-5-----5-7-7/9-9-9-9\7-5-7-5-------|
D|-------------------7-7-----------------------7-----|
A|---------------------------------------------------|
E|---------------------------------------------------|



E|---------------------------------------------------|
B|---------------------------------------------------|
G|--------------------------7-7/9-7------------------|
D|-----6---7/9-7-6---9-9-10---------10---------------|
A|-7-7---7-------------------------------------------|
E|---------------------------------------------------|


( Am  F  E ) (2x)

Am
A porta vai se abrir
F
Eu quero entrar com você
E                               Am E
Você não pode impedir de acontecer
Am
O que será esse amor?
F
Só as estrelas dirão
         E
Feito a gente

Podem outros tentar
           F    G
Não se amarão

Refrão 2x:
F                        C
  O nosso amor é raio luzente
           G              Am
Estrela cadente na escuridão
F                         C
  Um beijo seu um rio de mel
              G              F
Me leva pro céu me tira do chão

( Am  F  E ) (2x)

Refrão 2x:
F                        C
  O nosso amor é raio luzente
           G              Am
Estrela cadente na escuridão
F                         C
  Um beijo seu um rio de mel
              G              F
Me leva pro céu me tira do chão

TOP cifras de COMPANHIA do FORRÓ

  1. Olha a Barriguinha
  2. Motel Disfarçado Companhia do Forró
  3. Ziriguidum
  4. Magia do Amor
  5. Amor Não Vai Faltar
  6. Toque do Celular
  7. Mel da Sua Boca
  8. A Nossa História
  9. Dois Corações e Uma História
  10. Estrela Cadente

Pela Web