Cifras Web
Conexão Uai

Projetos e Sonhos

Conexão Uai

9 acessos

Em                  G             D9                  A9
Não quero viver nessa ilusão, eu quero um pedaço do seu coração
 Em                 G                  D9
Sair com você, passearmos a noite, curtir um momento, um
    A9
Instante
   Em                  G                D9             A
Pensar nossa vida, projetos e sonhos, amores que vão eternizar


(Ref)

D                 A9              Em                    G
Eu só penso em você e no nosso futuro, ter você ao meu lado me
       A9 D
deixa seguro.
            A9                 Em                   G
Certeza de amor, proteção e carinho, na estrada do amor trilhar
      A9  D
nosso caminho.
   A9    Em                G           A9      D
ôuoo, ôuoo,Na estrada do amor trilhar nosso caminho.


Solo: D,A9,Em,G,D,A9,Em,G,Em



E|---5-5h7-5-----------------------------------------------------
B|-7---------7-5-7-8-8/10-8-7/5-5-7-7/8--------------------------
G|---------------------------------------7-9-9/11-9--------------
D|---------------------------------------------------------------
A|---------------------------------------------------------------
E|---------------------------------------------------------------


2°Parte



E|---5-5h7-5-----------------------------------------------------
B|-7---------7-5-7-8-8/10-8-7/5-5-7-7/8-------------8------------
G|---------------------------------------7-9-9/11-9--------------
D|---------------------------------------------------------------
A|---------------------------------------------------------------
E|---------------------------------------------------------------

TOP cifras de Conexão Uai

  1. Menina Veneno
  2. Caminheiro
  3. Mil Anos
  4. Zuar e Beber
  5. Amanha Sei Lá
  6. Seu Astral
  7. Teaser Doidão Igual o Batman
  8. Ciumenta
  9. Aonde Está o Meu Amor
  10. Coração - Revelação

Pela Web