Cifras Web
Consumed

Bye Bye Fatman

Consumed

9 acessos

INTRO
                                2X

E|-------------------------------
B|-------------------------------
G|-888-888----4------------------
D|-666-666----2------------------
A|-------------------------------
E|-------------------------------

        
SOLO 1                         2x

E|---------------------------------
B|---------------------------------
G|--------8-11--13p11-13p11-13p11--
D|-999-11--------------------------
A|---------------------------------
E|---------------------------------



Base pro Solo 2 
             2x --->    Solo 2                         4X

E|------------          E|--------------------------------
B|------------          B|--------------------------------
G|-----44-----          G|--------------13-13-13-13-12-11-
D|-66--44-----          D|-999-10-13-13-------------------
A|-66--22-----          A|--------------------------------
E|-44---------          E|--------------------------------


VERSO

P.M.=Palm Mute 
              4X

E|------------
B|------------
G|-----44-----
D|-66--44-----
A|-66--22-----
E|-44---------



REFRÃO
                       3x

E|----------------------
B|----------------------
G|----44----------------
D|-66-44-44-------------
A|-66-22-44-------------
E|-44----22-------------


OUTRO                         3x

E|----------------------------
B|----------------------------
G|----------------------------
D|-------222---2--------------
A|-6-5-4-222---2-4-5-666------
E|-4-3-2-000---0-2-3-444------








-------------------------------------------

INTRO

VERSO
Here she comes, clothes packed in her suitcase. 
Here she comes,wearing make-up upon her face. 
Here she comes, always looking on the bright side. 
Here she comes, sucking on my good side

VERSO (sem P.M.) / com SOLO 2
Here she comes, clothes packed in her suitcase. 
Here she comes,wearing make-up upon her face. 
Here she comes, always looking on the bright side. 
Here she comes, sucking on my good side
       
REFRÃO
She said to me no-one cares and I've a good idea why. 
If I said that I did care, then it would be a lie. 
No-one cares about you and I've a good idea why. 

OUTRO
Good idea why (3x)

INTRO E SOLO 1 

VERSO
Here she comes, knocking upon my door. 
Just the same you'd think by now she'd know the score. 
Here she comes, looking for a free ride. 
Here she comes, sucking on my good side

VERSO (sem P.M.) / com SOLO 2
Here she comes, clothes packed in her suitcase. 
Here she comes,wearing make-up upon her face. 
Here she comes, always looking on the bright side. 
Here she comes, sucking on my good side

REFRÃO
She said to me no-one cares and I've a good idea why. 
If I said that I did care, then it would be a lie. 
No-one cares about you and I've a good idea why.

OUTRO
Good idea why (3x)

Aqui entra


E-------------------------------
B-------------------------------
G-13-13-13-13-13---9-9-9-9-9-9--
D-------------------------------
A-------------------------------
E-------------------------------


Depois entra isso junto com SOLO 2 
 p.m.

E-------------------
B-------------------
G-44----------------
D-44----1-2-1-2-1---
A-22--------------2-
E-------------------


OUTRO
Here she comes 
Here she comes
Here she comes
Here she comes

Fim ! Acho q tah bom ! Fiz a tab tudo explicadinho certinho !!
Escute a música que você irá entender tudo !

TOP cifras de Consumed

  1. A Twat Called Maurice
  2. Lead The Way
  3. Bye Bye Fatman
  4. Brutal Tooth
  5. On The Take Again
  6. Heavy Metal Winner
  7. Sunnyside Up
  8. Chop Suicide
  9. Something to do
  10. Start Living

Pela Web