Cifras Web
Consumed

Chop Suicide

Consumed

7 acessos

INTRO

   G   G#  Bb  F    2x

E--------------------
B--------------------
G--------------------
D----------333-------
A--555-666-111-333---
E--333-444-----111---


                              
Entra so na 1° vez             Eb  D   C   B    

E---------------             E-------------------
B---------------             B-------------------
G---------------  SOLO 1 --> G-------------------
D---------------             D-------------------
A-3333-2222-----             A-666-555-333-222---
E---------------             E-------------------


Baixo

G-------------------
D-------------------
A-----444-------666-
E-444------1111-----


    
VERSO   
   G#   C#    F       Eb   4x

E---------------------------
B---------------------------
G---------------------------
D-------6666----------888---
A--6666-4444--3333333-666---
E--4444-------1111111-------


REFRÃO

E------------------------------
B------------------------------
G------------------------------
D------3------3------3---------
A--666-1--333-1--666-1--333-5--
E--444----111----444----111-3--


OUTRO

E-----------------------------
B-----------------------------
G--------4-4------------------
D--66666-4-4-66666-4-4---333--
A--66666-2-2-66666-4-4---333--
E--44444-----44444-2-2---111--



SOLO 2 / Com Wah Wah 

E-------------------------------------------------------------

B--------------
-----------------------------------------------

G-----8-8-7-7-------8-8-7h8p7--------8-8-7-7------------------
D--6-6-------8-8-6-6----------8-8-6-6-------8-8/10-10-10-9----
A--------------
-----------------------------------------------

E--------------
-----------------------------------------------


   
SOLO 3
   Eb  D   C   B   C   D   C    B

E-----------------------------------
B-----------------------------------
G-----------------------------------
D-----------------------------------
A--666-555-333-222-333-555-3333-2~--
E-----------------------------------




-----------------------------------------------


INTRO

SOLO 1 4x

Baixo

VERSO com P.M. = Palm Mute
it's a part of me
it's just the way I am
and I love the way
that it makes me feel today

VERSO sem P.M.
it can be arranged
I can make you see
take a piece of mind
and look inside of me

SOLO 1 2x

VERSO
there is nothing better
than to spend the day with you
doing all the things
that you really shouldn't do
give them time of day
take it all away
keep it to ourselves
better off this way

SOLO 1 1x

REFRÃO 2X
it's just a feeling
I can do without

OUTRO 4x

SOLO 2

SOLO 3

VERSO com P.M.
look at all the fools
wind them up
and watch them go
looking for the answers
only we know

VERSO sem P.M.
I don't mean to brag
I've got it in the bad
I'm a lucky man
appreciate it while I can

SOLO 1

REFRÃO 2x
it's just a feeling
I can do without

SOLO 3 2x


Fim !! Tah ai axo q tah certo !!

TOP cifras de Consumed

  1. A Twat Called Maurice
  2. Lead The Way
  3. Bye Bye Fatman
  4. Brutal Tooth
  5. On The Take Again
  6. Heavy Metal Winner
  7. Sunnyside Up
  8. Chop Suicide
  9. Something to do
  10. Start Living

Pela Web