Cifras Web
Consumed

Heavy Metal Winner

Consumed

8 acessos

INTRO

    C#  C  B  Bb                  2x

E|--------------------------------
B|--------------------------------
G|--666555444333------------------
D|--666555444333------------------
A|--444333222111------------------
E|--------------------------------

                                  2X

E|--------------------------------
B|--------------------------------
G|--666555444333------------------
D|--XXXXXXXXXXXX------------------
A|--444333222111------------------
E|--------------------------------


    B  C#     B  F#    4x       Na 2° vez entra esse solinho
E|---------------------         E|-------------------2X            
B|---------------------         B|-------------------
G|--44-6------44------- ----->  G|-------------------
D|--44-6------44-4-----         D|--666-444-333------ 
A|--22-4------22-4-----         A|--------------444--
E|---------------2-----         E|-------------------

VERSO
  
  P.M. = Palm Mute                   2x

E|-----------------------------------
B|-----------------------------------
G|--6666-----------------------------
D|--6666--4444-----------------------
A|--4444--4444-----------------------
E|--------2222-----------------------


REFRÃO / OUTRO   

    B  C#     B  F#    4x

E|---------------------
B|---------------------
G|--44-6------44-------
D|--44-6------44-4-----
A|--22-4------22-4-----
E|---------------2-----



-------------------------------------------


INTRO

VERSO
You could be evicted
Live your life restricted
Sooner or later
So pay them what you owe
Maybe then they'll let you go
Sometime never

REFRÃO
You could make a difference
Deal with what's in front of you
You say it's gonna happen
You know it's gonna happen
You could make a difference
Get up and make a stand
It's the way it makes me feel

The way I feel
There's nothing I can't do
And the way I feel
I'll follow you and see it through


    C#  C  B  Bb                  2x

E|--------------------------------
B|--------------------------------
G|--666555444333------------------
D|--666555444333------------------
A|--444333222111------------------
E|--------------------------------


VERSO
You're acting like a prick
I think your head is made of brick
Is there anyone in there?
You could make it happen
If you had the balls
But I think you're a coward

REFRÃO
 
Depois entra isso !
    
    C#  C  B  Bb                  2x

E|--------------------------------
B|--------------------------------
G|--666555444333------------------
D|--666555444333------------------
A|--444333222111------------------
E|--------------------------------

                                  2X

E|--------------------------------
B|--------------------------------
G|--666555444333------------------
D|--XXXXXXXXXXXX------------------
A|--444333222111------------------
E|--------------------------------



E|--------------------------------
B|--------------------------------
G|--44-6~-------------------------
D|--44-6~-------------------------
A|--22-4~-------------------------
E|--------------------------------


  P.M. = Palm Mute   2x

E|----------------------
B|----------------------
G|----------------------
D|--666-444-333---------
A|--------------444-----
E|------------------222-


Aqui sem P.M.        4x

E|-------------------
B|-------------------
G|-------------------
D|--666-444-333------
A|--------------444--
E|-------------------


VERSO sem P.M.
Here today but gone tomorrow

    C#  C  B  Bb                  

E|--------------------------------
B|--------------------------------
G|--666555444333------------------
D|--666555444333------------------
A|--444333222111------------------
E|--------------------------------


Fim !
Essa música eh bem fácil eh so ouvir ela e tocar ! 
Essa música faz parte da trilha sonora do Jogo Tony Hawks Pro Skater 2 pro Playstation !

Acho q ta tudo certo !

TOP cifras de Consumed

  1. A Twat Called Maurice
  2. Lead The Way
  3. Bye Bye Fatman
  4. Brutal Tooth
  5. On The Take Again
  6. Heavy Metal Winner
  7. Sunnyside Up
  8. Chop Suicide
  9. Something to do
  10. Start Living

Pela Web