Cifras Web
Consumed

On The Take Again

Consumed

8 acessos

INTRO / REFRÃO

       Eb    Bb     C#     G#

E------------------------------------
B------------------------------------
G------------------------------------
D------------------------------------
A-66666-4----------44444-----4-----4-
E---------6666-4-6-------4-6---4-6---



VERSO
   Eb     Bb     C#     G#

E-------------------------------
B-------------------------------
G--8-8-8---------6-6-6----------
D--8-8-8--8-8-8--6-6-6--6-6-6---
A--6-6-6--8-8-8--4-4-4--6-6-6---
E---------6-6-6---------4-4-4---



SOLO

E-------------------------------------------------------------

B--------------
-----------------------------------------------

G-------------3-3-------------------------------3-3-----------
D-----3-4-3-4-----6-6-6-4-6-4-3----------3-4-3-4---6-6-6-4-6--
A-6666--------------------------4~---6666---------------------
E--------------
-----------------------------------------------




-----------------------------------------------


INTRO 6x

VERSO 8X
you're always on the back of others
there's no one here
to back you up
put on a smile get out of my face
and when you're gone
I'll have fun all the time
it's fucking ace

SOLO 2X

VERSO 8X
is this the way it has to be?
you keep yourself to yourself
this is often what they say
put on your boots
get up on their case
and when they're gone
you'll have fun all the time
it's fucking ace

REFRÃO 7X
you're on the take again
and if I didn't know you better,
I would try it again

SOLO 4X

VERSO 8x
you're on the take again
and if I didn't know you better,
I would try it again

REFRÃO 2x (com base ternimando em Eb)

TOP cifras de Consumed

  1. A Twat Called Maurice
  2. Lead The Way
  3. Bye Bye Fatman
  4. Brutal Tooth
  5. On The Take Again
  6. Heavy Metal Winner
  7. Sunnyside Up
  8. Chop Suicide
  9. Something to do
  10. Start Living

Pela Web