Cifras Web
Consumed

Something to do

Consumed

7 acessos

INTRO / VERSO

                                        2x
E---------------------------------------- 
B----------------------------------------
G--8-6-8-8-8--11-8-11-8-8---------6-6-6--
D--8-6-8-8-8--11-8-11-8-8--9-9-9--6-6-6--
A--6-4-6-6-6---9-6--9-6-6--9-9-9--4-4-4--
E--------------------------7-7-7---------
P.M. =  <--->        <--->


OUTRO 1 
  Eb   F    F#    Bb  B   Bb C#  2x
E-------------------------------- 
B--------------------------------
G-8-8-10-10-11-11-------------6--
D-8-8-10-10-11-11-8-8-9-9-8-8-6--
A-6-6--8--8--9--9-8-8-9-9-8-8-4--
E-----------------6-6-7-7-6-6----

SOLO
   Bb     G#     F#     F     Bb     G#     F#   F  2X

E----------------------------------------------------

B-----
-----------------------------------------------

G-----
-----------------------------------------------

D--8-8--8-6-6--6-4-4--4-3-3--3-6-6--6-4-4--4-3-3-----
A------------------------------------------------8~--
E-----
-----------------------------------------------


OUTRO 2                     

E---------------------------
B---------------------------
G--8-8-8--6--4-4-4--6--8-8--
D--8-8-8--6--4-4-4--6--8-8--
A--6-6-6--4--2-2-2--4--6-6--
E---------------------------


OUTRO 3

E-------------------------------
B-------------------------------
G--8-8-8--6--4-4-4/6-6--6--8-8--
D--8-8-8--6--4-4-4/6-6--6--8-8--
A--6-6-6--4--2-2-2/4-4--4--6-6--
E-------------------------------




-----------------------------------------------


INTRO

OUTRO 1

SOLO

VERSO
why subject yourself to this?
there must be
something better for you
use both hands
take all you can
jump in the deep end
after all it's something to do

OUTRO 2

VERSO
if you had your time again
there must be
something in it for you
take your leave
do as you please
jump in the deep end
after all it's something to do

SOLO 4X
something to do

OUTRO 3 4X
have you ever realised
you're coming on strong
with your moral stance?
be yourself and you'll be okay
live your life anyway

E--------------------------3X    E----------------
B--------------------------      B----------------
G--8-6-8-8-8--11-8-11-8-8--      G---------6-6-6--
D--8-6-8-8-8--11-8-11-8-8--      D--9-9-9--6-6-6--
A--6-4-6-6-6---9-6--9-6-6--      A--9-9-9--4-4-4--
E--------------------------      E--7-7-7---------    
P.M. =  <--->        <--->

why subject yourself to this?
there must be
something better for you

VERSO 1X
take your leave
do as you please
appreciate your freedom
after all it's something to do

SOLO 4X (aqui a base termina em Eb)
something to do

TOP cifras de Consumed

  1. A Twat Called Maurice
  2. Lead The Way
  3. Bye Bye Fatman
  4. Brutal Tooth
  5. On The Take Again
  6. Heavy Metal Winner
  7. Sunnyside Up
  8. Chop Suicide
  9. Something to do
  10. Start Living

Pela Web