Cifras Web
Consumed

Sunnyside Up

Consumed

8 acessos

INTRO


E------------------------------------------
B------------------------------------------
G--888--777--666---------------------------
D--666--888--444--666----------------------
A-----------------444----------------------
E------------------------------------------


VERSO
   G#  C#      G#  C#      C#  F  C#   G#

E------------------------------------------
B------------------------------------------
G--6-6---------6-6---------6-6-----6-6-----
D--6-6-6-6-6-6-6-6-6-6-6-6-6-6-3-3-6-6-6-6-
A--4-4-6-6-6-6-4-4-6-6-6-6-4-4-3-3-4-4-6-6-
E------4-4-4-4-----4-4-4-4-----1-1-----4-4-


OUTRO
   F     Bb  Eb  F      3X

E-----------------------
B-----------------------
G--10-10-----8-8-10-10--
D--10-10-8-8-8-8-10-10--
A---8--8-8-8-6-6--8--8--
E--------6-6------------



OUTRO 1  

E-------------------------------------------------------

B--------
-----------------------------------------------

G--10-10-----6-6-6-6-----6-6---------10-10-----6-6-6-6--
D--10-10-8-8-6-6-6-6-6-6-6-6-6-6-6-6-10-10-8-8-6-6-6-6--
A---8--8-8-8-4-4-4-4-6-6-4-4-6-6-6-6--8--8-8-8-4-4-4-4--
E--------6-6---------4-4-----4-4-4-4-------6-6----------

SOLO - (Base so na segunda parte do solo , mas pode fazer na primeira tbm!)

E-----------------------------------------------------

B------
-----------------------------------------------

G------
-----------------------------------------------

D-----------------------------4----4-6b-4-------------
A--6-4-6-4-6b--6-4-6-4-6b--4h6--4-6------4-6--6-4-6b--
E----------------------------------------------4~-----
   G# C# G#    C#    F         C#      G#

E--------------------------------------------------

B--------------------------------------------4~----
G---
-----------------------------------------------

D-----------------------4-----4-6b-4---------------
A--6-4-6b--4-6-4-6b--4h6--4-6-------4-6-4-6-4------
E--------------------------------------4-----------



-----------------------------------------------


I know

INTRO 4x

VERSO 2x
you're like me
and I like you
let's see if you dig
the same things that I do
it's okay
you can stay
you can stick around
yeah that's what I say

INTRO 4x

VERSO 2x
I want to take you out
you're good enough to eat
I want to suck the toes
on your feet
I want to shout
stand up and shout
give it some of that
and let it all out

OUTRO
I've got the feeling
I feel it everyday
and I know
that this feeling
will see me through to the end
and I know
there's still a lot to see
but that's okay with me

OUTRO 1
and I know
'cause you'll always be around
for me
I love you
I just love every single thing
about you

VERSO 1X
I need you
to need me
we can talk about the people
that we see

INTRO 4x

SOLO

INTRO 6x
I know

No Fim

E----------------------------
B----------------------------
G--6-6~----6~--6-6-6-6-6-----
D--6-6~----6~--6-6-6-6-6--6--
A--4-4~----4~--4-4-4-4-4--6--
E-------------------------4--

TOP cifras de Consumed

  1. A Twat Called Maurice
  2. Lead The Way
  3. Bye Bye Fatman
  4. Brutal Tooth
  5. On The Take Again
  6. Heavy Metal Winner
  7. Sunnyside Up
  8. Chop Suicide
  9. Something to do
  10. Start Living

Pela Web