Cifras Web
Consumed

Wake Up With A Smile

Consumed

7 acessos


intro (guitar 1)

------------------------------------------------------------------------------
-------------------------------6-5-----------6-5------------------------------
-----------------------------------5-------------5----------2--2--2-----------
-10-10-10-10-10-10-10-10-5-5-5-------5-7-7-7-------5-3-3-3--------------------
--8--8--8--8--8--8--8--8-3-3-3---------5-5-5---------1-1-1--------------------
------------------------------------------------------------------------------

                                                                              
second part of intro (guitar 1)

------------------------------------------------------------------------------
------------------------------------------------------------------------------
-----------------------------------------------------2-----2---2--------------
-3-3-3-3-3-3-3-3-2-2-2-2-2-2-2-2-3-3-3-3-3-3-3-3------------------------------
-------------------------------------------------1-1---1-1---1----------------
------------------------------------------------------------------------------

                                                                              
guitar 1 plays this part twice, then*         (guitar 2 plays this throughout)

-----------------------------------------------------------------|------------
-----------------------------------------------------------------|------------
-----------------------------------------------------------------|------------
-----------------5-5-5-5-5-5-5-5-7-7-7-7-7-7-7-7-3-3-3-3-3-3-3-3-|------------
-3-3-3-3-3-3-3-3-3-3-3-3-3-3-3-3-5-5-5-5-5-5-5-5-1-1-1-1-1-1-1-1-|------------
-1-1-1-1-1-1-1-1-------------------------------------------------|------------

                                                                              
*this part twice (same chords throughout, rhythm changes at parts)

------------------------------------------------------------------------------
------------------------------------------------------------------------------
------------------------------------------------------------------------------
-10-10-10-10-10-10-10-10-5-5-5-5-5-5-5-5-7-7-7-7-7-7-7-7-3-3-3-3-3-3-3-3------
--8--8--8--8--8--8--8--8-3-3-3-3-3-3-3-3-5-5-5-5-5-5-5-5-1-1-1-1-1-1-1-1------
------------------------------------------------------------------------------

                                                                              
solo
--------------------------------------------------------|---------------------
--------------------------------------------------------|---------------------
--------2-0-----------0---------------------------0-----|---------------------
-3-3-3------3-----------3-2--0-0-0--3-2-0-----------3-2-|-3-------------------
---------------3-3-3-----------------------3-3-3--------|---------------------
--------------------------------------------------------|---------------------

TOP cifras de Consumed

  1. A Twat Called Maurice
  2. Lead The Way
  3. Bye Bye Fatman
  4. Brutal Tooth
  5. On The Take Again
  6. Heavy Metal Winner
  7. Sunnyside Up
  8. Chop Suicide
  9. Something to do
  10. Start Living

Pela Web