Cifras Web
Copeland

When Finally Set Free

Copeland

10 acessos

Introdução: Bm  A  G

Lead part for intro
e|-------10-------------10---------------14--------12------10---------|
B|---7-8----7-8-10--7-8----7-8-10----------------------7-8----7-8-10--|
G|---------------------------------12h14-----12h14--------------------|
D|--------------------------------------------------------------------|
A|--------------------------------------------------------------------| 
E|--------------------------------------------------------------------|

Verse
	Bm	A			G
Feel the pain teaching us how much more we can take,
	Em	D		G
reminding us how far we've come.
	Bm	A			G
Let the pain burn away from our hearts.
	Em	D		G
We have time to start all over again.

Chorus
Bm			A		
If you will shine your love down here.
Bm			A		
And make our hearts as perfect as new.
Bm			A		
If you would shine your love down here
Bm			A		
I promise I'll reflect it right back at you.

riff:
e|--0-00-22-00---|
B|--3-33-33-22---|
G|--0-00-22-22---|
D|--5-44-00-22---|
A|--5-55-xx-00---|
E|--x-xx-xx-xx---|

TOP cifras de Copeland

  1. Testing The Strong Ones
  2. California
  3. No One Really Wins This Time Intro
  4. Brightest
  5. Coffee
  6. Good Morning Fire Eater
  7. No One Really Wins This Game
  8. No One Really Wins This Time Solo
  9. Eat,Sleep,Repeat
  10. Dont Slow Down Acoustic

Pela Web