Cifras Web
Corrosion Of Conformity

Holier

Corrosion Of Conformity

9 acessos

TUNING: Standard Tuning

INTRO:

e |---------------------------------------------------------|
B |---------------------------------------------------------|
G |---------------------------------------------------------|
D |--12---12-------12---12----------------------------------|
A |--10---10-------10---10----------------------------------|
E |---------------------------------------------------------|

With Bass Overlap

VERSE:

e |---------------------------------------------------------|
B |---------------------------------------------------------|
G |---------------------------------------------------------|
D |---9--9--9--9--10\--9---10\--9-------------------12--12--|
A |---7--7--7--7---8\--7----8\--7-------------------10--10--|
E |-------------------------------0-0-0-0-0-0-0-0-0---------|


If you can understand the lyrics this riff is at the
"...finding the answers...distorting the question..." part

e |---------------------------------------------------------|
B |---------------------------------------------------------|
G |---------------------------------------------------------|
D |------3--2--------5/--7----5-----------------------------|
A |------3--2--------5/--7----5-----------------------------|
E |--0---1--0---0----3/--5----3-----------------------------| x3



e |---------------------------------------------------------|
B |---------------------------------------------------------|
G |---------------------------------------------------------|
D |--------8----7---------6---------------------------------|
A |--------8----7---------6---------------------------------|
E |---0----6----5----0----4---------------------------------|


FIGURE A:

e |---------------------------------------------------------|
B |---------------------------------------------------------|
G |---------------------5-----------------------------------|
D |---------------------5-----------------------------------|
A |---------------------3-----------------------------------|
E |----0---5h6p5p0--3---------------------------------------|



e |---------------------------------------------------------|
B |---------------------------------------------------------|
G |---------------------5-----------------------------------|
D |---------------------5-----------------------------------|
A |---------------------3-----------------------------------|
E |--0--0---5h6p5p0--3--------------------------------------|
Repeat FIGURE A several times, than play



e |---------------------------------------------------------|
B |---------------------------------------------------------|
G |--9------------------------------------------------------|
D |--9-------------8--8----------------9/-10-\9-------------|
A |--7-------------8--8----------------9/-10-\9-------------|
E |--0---0-0-0-0---6--6---0-0-0-0-0----7/--8-\7-------------| x2



e |---------------------------------------------------------|
B |---------------------------------------------------------|
G |---------------------------------------------------------|
D |--7-----------------------------------------7------------|
A |--7-----------------------------------------7------------|
E |--5---5-5-5--5-5-5--5-5-5--5-5-5--5-5-5-----5------------|



e |---------------------------------------------------------|
B |---------------------------------------------------------|
G |---------------------------------------------------------|
D |----5---7---5---4----------------------------------------|
A |----5---7---5---4----------------------------------------|
E |----3---5---3---2----------------------------------------|


OUTRO:
e |---------------------------------------------------------|
B |---------------------------------------------------------|
G |---------------------------------------------------------|
D |---3---2--------5/7----5----2----------------------------|
A |---3---2--------5/7----5----2----------------------------|
E |---1---0---0----3/5----3----0----------------------------|

TOP cifras de Corrosion Of Conformity

  1. Stone Breaker Intro
  2. Albatross
  3. Damned For All Time
  4. Stare Too Long
  5. In The Arms Of God
  6. King Of The Rotten
  7. Señor Limpio
  8. The Snake Has No Head
  9. Albatross Intro
  10. Bottom Feeder

Pela Web