Cifras Web
Corrosion Of Conformity

Shallow Ground

Corrosion Of Conformity

11 acessos

TUNING: Drop D Tuning and 1 whole step down (C)



d |---------------------------------------------------------------|
A |---------------------------------------------------------------|
F |--------2h4p2-------------------------2h4p2--------------------|
C |--------0-----4-2p4-------------------0-----4-2p4-----2p4-2-2--|
G |-0--0-0-0-----0-----0-0-0--0-0-0--0-0-0-----0-----0-0----------|
C |-0--0-0-0-----0-----0-0-0--0-0-0--0-0-0-----0-----0-0----------|



d |---------------------------------------------------------------|
A |---------------------------------------------------------------|
F |--------7-----------------------7------------------------------|
C |-5--5-5-5-5-5-7---7-7-----------5-5-5-7---7-7------------------|
G |-5--5-5-5-5-5-5-5-5-5-5-5-5-5-5-5-5-5-5-5-5-5-7----------------|
C |-5--5-5-5-5-5-5-5-5-5-5-5-5-5-5-5-5-5-5-5-5-5------------------|



d |---------------------------------------------------------------|
A |---------------------------------------------------------------|
F |--------2h4p2-------------------------2h4p2--------------------|
C |--------0-----4-2p4-------------------0-----4-2p4-----2p4-2-2--|
G |-0--0-0-0-----0-----0-0-0--0-0-0--0-0-0-----0-----0-0----------|
C |-0--0-0-0-----0-----0-0-0--0-0-0--0-0-0-----0-----0-0----------|



d |---------------------------------------------------------------|
A |---------------------------------------------------------------|
F |--------7-----------------------7------------------------------|
C |-5--5-5-5-5-5-7---7-7-----------5-5-5-7---7-7------------------|
G |-5--5-5-5-5-5-5-5-5-5-5-5-5-5-5-5-5-5-5-5-5-5-7----------------|
C |-5--5-5-5-5-5-5-5-5-5-5-5-5-5-5-5-5-5-5-5-5-5------------------|



d |---------------------------------------------------------------|
A |---------------------------------------------------------------|
F |-------------9-9--9h10p9--9-----7-7--------7-7-----------------|
C |----11-11-11-7-7----------7-5-----5-5-5-5--5-5-5---------------|
G |-9---9--9--9-7-7----------7-5-----5-5-5-5--5-5-5---------------|

C | 9---9--9--9-7-7----------7-5-----5-5-5-5--5-5-5---------------|


d |---------------------------------------------------------------|
A |---------------------------------------------------------------|
F |-------------------------------2-2-2p0-------------------------|
C |---10-10-10--9-9-9b9---8-8-8-8-0-0-0---------------------------|
G |-7--7--7--7--5-5-5-----5-5-5-5----------3----------------------|
C |-7--7--7--7--5-5-5-----3-3-3-3---------------------------------|


GUITAR 1:

d |---------------------------------------------------------------|
A |---------------------------------------------------------------|
F |--------2h4p2-------------------------2h4p2--------------------|
C |--------0-----4-2p4-------------------0-----4-2p4-----2p4-2-2--|
G |-0--0-0-0-----0-----0-0-0--0-0-0--0-0-0-----0-----0-0----------|
C |-0--0-0-0-----0-----0-0-0--0-0-0--0-0-0-----0-----0-0----------|



d |---------------------------------------------------------------|
A |---------------------------------------------------------------|
F |--------7-----------------------7------------------------------|
C |-5--5-5-5-5-5-7---7-7-----------5-5-5-7---7-7------------------|
G |-5--5-5-5-5-5-5-5-5-5-5-5-5-5-5-5-5-5-5-5-5-5-7----------------|
C |-5--5-5-5-5-5-5-5-5-5-5-5-5-5-5-5-5-5-5-5-5-5------------------|

                                                  Repeat

GUITAR 2:
Extremely long reverb effects used
The first note is hit and the rest is vibrato and effects
I figured the lead out for 3 guitars playing
I'm not sure, any suggestions on this is appreciated

d |---------------------------------------------------------------|
A |---/17--15--12-/-13--12-/-14-/-15-/-17-------------------------|
F |---------------------------------------------------------------|
C |---------------------------------------------------------------|
G |---------------------------------------------------------------|
C |---------------------------------------------------------------|


GUITAR 3:

d |---------------------------------------------------------------|
A |---------------------------------------------------------------|
F |---/14--11-/-16---5---4-/--6-/--7-/--9-------------------------|
C |---------------------------------------------------------------|
G |---------------------------------------------------------------|
C |---------------------------------------------------------------|


GUITAR 4:

d |---------------------------------------------------------------|
A |---------------------------------------------------------------|
F |---/14--11---7-7~~~~~~~~~~-4-/--6-/--7---2---------------------|
C |---------------------------------------------------------------|
G |---------------------------------------------------------------|
C |---------------------------------------------------------------|


OUTRO:

d |---------------------------------------------------------------|
A |---------------------------------------------------------------|
F |-------------------------4p2-----------------------------------|
C |-------------------------0---2-4-------------------------------|
G |-0---0-0-0---0-0-0---0-0-0-----0-------------------------------|
C |-0---0-0-0---0-0-0---0-0-0-----0-------------------------------| x3



d |---------------------------------------------------------------|
A |---------------------------------------------------------------|
F |---------------------------------------------------------------|
C |-0-0-0----0-0-5-5-5-5-3-3-2b3----------------------------------|
G |-0-0-0----0-0-5-5-5-5-3-3-3------------------------------------|
C |-0-0-0----0-0-5-5-5-5-3-3-3------------------------------------|


d |---------------------------------------------------------------|
A |--------------------------------3------------------------------|
F |---------------------------------------------------------------|
C |-0-----0~~~~~~~~~~~~~~~~~~~~~~---------------------------------|
G |-0-----0~~~~~~~~~~~~~~~~~~~~~~---------------------------------|
C |-0-----0~~~~~~~~~~~~~~~~~~~~~~---------------------------------|

TOP cifras de Corrosion Of Conformity

  1. Stone Breaker Intro
  2. Albatross
  3. Damned For All Time
  4. Stare Too Long
  5. In The Arms Of God
  6. King Of The Rotten
  7. Señor Limpio
  8. The Snake Has No Head
  9. Albatross Intro
  10. Bottom Feeder

Pela Web