Cifras Web
Corrosion Of Conformity

White Noise

Corrosion Of Conformity

9 acessos

TUNING: Tune 1 whole step down (D)

INTRO:
FIGURE A:
GUITAR 1:

D |-----------------------------------------------------|
A |-----------------------------------------------------|
F |-----------------------------------------------------|
C |-----------------------------------------------------|
G |--------7-----7-----6---6-5--------------------------|
D |---0-0-----0----0-0---0------------------------------|



D |-----------------------------------------------------|
A |-----------------------------------------------------|
F |-----------------------------------------------------|
C |-----------------------------------------------------|
G |--------7-----7-----6---6-7--------------------------|
D |---0-0-----0----0-0---0------------------------------|
Play FIGURE A several times and then it is doubled with this riff


GUITAR 2:

D |-----------------------------------------------------|
A |-----------------------------------------------------|
F |-----------------------------------------------------|
C |--------9----9-----8---8-7---------------------------|
G |---7-7----7----7-7---7-------------------------------|
D |-----------------------------------------------------|



D |-----------------------------------------------------|
A |-----------------------------------------------------|
F |-----------------------------------------------------|
C |--------9----9-----8---8-9---------------------------|
G |---7-7----7----7-7---7-------------------------------|
D |-----------------------------------------------------|


MAIN RIFF:

D |----------------------------------------------------------|
A |----------------------------------------------------------|
F |----------------------------------------------------------|
C |------------------4----4-3-----------3---2---2--x-x-x-x---|
G |--2-------4/5-----2----2-1-----------3---2---2--x-x-x-x---|
D |--0-0-0---2/3--0------------0-2-1-0--1---0---0--x-x-x-x---|


CHORUS:

D |-----------------------------------------------------|
A |-----------------------------------------------------|
F |--3------------3-----2-------------------------------|
C |--3-----3------3-----2-------------------------------|
G |--1-----3------1-----0-------------------------------|
D |--------1--------------------------------------------|



D |-----------------------------------------------------|
A |-----------------------------------------------------|
F |-----------------------------------------------------|
C |--3---2----------------------------------------------|
G |--3---2---2p0----------------------------------------|
D |--1---0--------1-2-3-4--0--3h5-----------------------|


When the lyrics go, "...Rise Fight...Wrong Right...” play this;

D |-----------------------------------------------------|
A |-----------------------------------------------------|
F |-----------------------------------------------------|
C |--2-------2-----2-----------2--------2---------------|
G |--2-------2-----2-----------2--------2---------------|
D |--0--0-0--0-0-0-0--0-0-0-0--0-0-0-0--0-0-------------|



D |-----------------------------------------------------|
A |-----------------------------------------------------|
F |-----------------------------------------------------|
C |-----------------------------------------------------|
G |---2p0-----------------------------------------------|
D |--------1-2-3-4--0--3h5------------------------------|


After the lyrics, play this;

D |-----------------------------------------------------|
A |-----------------------------------------------------|
F |-----------------------------------------------------|
C |-----------------------------------------------------|
G |-----------------------------------------------------|
D |--3h5--5-5--3h5--5-5--3h5--5-5-5---------------------|


FIGURE B:

D |-----------------------------------------------------|
A |-----------------------------------------------------|
F |-----------------------------------------------------|
C |-----------------------------------------------------|
G |---5---6---7-----------------------------------------|
D |---3---4---5-----------------------------------------|


For the second time through play this instead of FIGURE B:

D |-----------------------------------------------------|
A |-----------------------------------------------------|
F |---8--7--5--7--5-------------------------------------|
C |---8--7--5--7--5-----5-------------------------------|
G |---6--5--3--5--3-----5-------------------------------|
D |---------------------3-------------------------------|


For the third time through play FIGURE B

For the fourth time through play this instead of FIGURE B:

D |-----------------------------------------------------|
A |-----------------------------------------------------|
F |-----------------------------------------------------|
C |-----------------------------------------------------|
G |-----------------------------------------------------|
D |--3h5-5-5-5-5--3h5-5-5-5-5--3h5--5-5-5---------------|



D |-----------------------------------------------------|
A |-----------------------------------------------------|
F |--8--7--5--7--5--------------------------------------|
C |--8--7--5--7--5------3---2---------------------------|
G |--6--5--3--5--3------3---2---------------------------|
D |---------------------1---0---------------------------|


SOLO:

D |-----------------------------------------------------|
A |-----------------------------------------------------|
F |-----------------------------------------------------|
C |-----------------------------------------------------|
G |---2p0-----------------------------------------------|
D |--------1-2-3-4--0--3h5------------------------------|

This riff is played during the solo

TOP cifras de Corrosion Of Conformity

  1. Stone Breaker Intro
  2. Albatross
  3. Damned For All Time
  4. Stare Too Long
  5. In The Arms Of God
  6. King Of The Rotten
  7. Señor Limpio
  8. The Snake Has No Head
  9. Albatross Intro
  10. Bottom Feeder

Pela Web