Cifras Web
Cream

Im So Glad Intro

Cream

7 acessos

ill find the rest later


E|-----------0-------0-------------0---0------------0------0----------------|
B|-------0-------0------------0-----0-----------0------0--------------------|
G|--------------------------------------------------------------------------|
D|--------------------------------------------------------------------------|
A|--5------------------5------------------4---------------------------------|
E|--------------------------------------------------------------------------|



E|-----------0---0-------------0------0-----------0------0------------------|
B|---------0---0-----------0-----0------------0-------0---------------------|
G|--------------------------------------------------------------------------|
D|--------------------------------------------------------------------------|
A|---4-----------------3------------------3---------------------------------|
E|--------------------------------------------------------------------------|



E|---------------0-----0--------------0--------0----------------------------|
B|-----------0------0------------0----------0-------------------------------|
G|--------------------------------------------------------------------------|
D|--------------------------------------------------------------------------|
A|----2--------------------2------------------------------------------------|
E|--------------------------------------------------------------------------|



of moments

TOP cifras de Cream

  1. Sunshine Of Your Love
  2. Deserted Cities Of The Heart
  3. Politition
  4. Blue Condition
  5. Politician
  6. Badge Solo
  7. Sitting On The Top Of The World
  8. Rock Is Important
  9. Sitting On Top Of The World
  10. Were Going Wrong

Pela Web