Cifras Web
Cris Wersel

Marcar Minha Geração

Cris Wersel

26 acessos

Solo de Baixo:

                   C#m                                                A
G|--------------------------------------------------------------------------------------------||
D|-------------2---1---1-2-------2---1---1-2----- -2---1---1-2-------2---1---1-2--||   (2x)
A|--------4-4---4---4------4-4----4-4--------0-0---0---0------0-0---0---0-------||
E|--------------------------------------------------------------------------------------------||


Guitarra:

E|-----------------------------------------------------------------------------------||
B|--14-14-17-14-16-14-16-17---14-14-17-14-16-14-16-17----||
G|-----------------------------------------------------------------------------------||
D|-----------------------------------------------------------------------------------||
A|-----------------------------------------------------------------------------------||
E|-----------------------------------------------------------------------------------||



E|---------------------------------------------------------------------------||
B|----------17----16--16-17-----------17----16----16-17----------||
G|--14-14----14---14----------14-14----14----14----------14/9--||
D|---------------------------------------------------------------------------||
A|---------------------------------------------------------------------------||
E|---------------------------------------------------------------------------||


E                                             B    C#m                                  A
Eu faço parte de uma geração, que não busca tuas mãos
E                                             B    C#m                                  A
Eu faço parte de uma geração, apaixonada por Jesus
E                                             B    C#m                                  A
Eu faço parte de uma geração, que vai levar o teu amor
F#m     C#m                 B         F#m              A                        B
Quero fazer obras maiores, não quero apenas ser mais um
             C#m                     A                     E/G#            B
Vou marcar minha geração, muitas vidas vou ganhar
             C#m           A            E/G#            B
Minha vida vou viver para influenciar
             C#m           A            E/G#            B
Diferença vou fazer, enquanto aqui  viver
             C#m           A            E/G#            B
Pode contar comigo Senhor, usa-me

Interlúdio: C#m  A  E/G#  B

TOP cifras de Cris Wersel

  1. Marcar Minha Geração
  2. Tu És Adorado
  3. Eu Vou Te Seguir
  4. Ao Menos Um
  5. Ele Me Ama
  6. O Que Adianta

Pela Web