Cifras Web
Crowbar

All I Had

Crowbar

8 acessos

Version 1.0 - December 2001
Transcribed by Lalith Vipulananthan (*)
Tuning (Low - High): B E D A


Intro                        Play twice

|--------------------------------------|
|--------------10------------12---10---|
|-7-----10-----8------12-----10---8----|
|-5-----8-------------10---------------|



Fill 1

|---------------------------------|
|---------------------------------|
|-3-----3-----3-----3---3/7~------|
|---------------------------------|



A                                           Play 4 times

|------------------------------------------------------|
|-2----------------------------10------------12---10---|
|-2---------------7-----10-----8------12-----10---8----|
|-0-------000000005-----8-------------10---------------|

          ........


Fill 2

|----------------------------------------|
|-10-------------------------------------|
|-8----------------10-----10---9-----9---|
|------------------8--8--88----7-7--77---|

                      .  .       .  .


B (slower)             Play 8 times

|---------------------------------|
|-----2---------------2-----------|
|-----2-----3-2-3-----2-----2-3-5-|
|-00000---003-2-3-00000---002-3-5-|

  ....    ..      ....    ..


Repeat Fill 1, A x 4, Fill 2, B x 8


Fill 3                   Play twice

|---------------------------------|
|-2-------------------------------|
|-2-------------------------------|
|-0-------------------------------|




C     [1,3]              [2]                 [4]

|---------------|-------------------|-------------------|
|-2-----7-------|-------------------|-------------------|
|-2-----5-----8-|-8-----------------|-8-3-3-------6-6-6-|
|-0---00----006-|-6-----------------|-6-1-1-----006-6-6-|

      ..    ..                                  ..


Repeat C



D          [1,3]                  [2]           [4]

|---------------------------|-------------|-------------|
|---------------------------|-------------|-------------|
|--*--7-8---3-4---7-8---3-4-|---7-9\8\7---|-------------|
|-(0)-5-6-0-1-2-0-5-6-0-1-2-|-0-5-7\6\5---|-003-002~-00-|

   .      .     .     .       .             ..  ..   ..

* play first time only


Repeat D x 4 (4th time miss out [4])


E               Repeat until fade

|-------------------------------|
|-------------------------------|
|-------------------------3-2---|
|-003-002~------003-002---1-0---|

  ..  ..        ..  ..



-----------------------------------------------------------

Lalith Vipulananthan (*)
Singularity Metal Tab (http://*)

TOP cifras de Crowbar

  1. High Rate Extinction
  2. And Suffer As One
  3. Lasting Dose
  4. New Dawn Intro
  5. Holding Nothing
  6. All I Had
  7. Dead Sun
  8. No Quarter
  9. Like Broken Glass
  10. Slave No More

Pela Web