Cifras Web
Crush 40

Live & Learn

Crush 40

8 acessos


E|-----------7------------7 65 56224362312674 7-4-3-2-5-------------|
B|----------------------------------------|
G|----------------------------------------| (x2)
D|-----2-2-4------2-2-4-----2-2-4--6-5-4-2|
A|-4-4--------2-2-------2-2---------------|
E|----------------------------------------|



E|----------------------|
B|----------------------|
G|-----4-----4-----4---4|
D|----------------------|
A|-4-4---4-4---4-4---4--|
E|----------------------|



Em                C
Can You feel life moving through your mind,
G                                D
Ohh, looks like it came back for more!



D|-6-5-4-2|

Yeah yeah yeah


Em                C
Can you feel time slipping down your spine,
G                        D
Ohh, you try and try to ignore



D|-6-2-4-6|

Yeah!


F#m         A
But you can hardly swallow
Em             G
Your fears and pain
F#m            A
When you can't help but follow
Em                               G
It puts you right back where you came



G|-4>0-4>6|



Em
Live and Learn!
C
Hanging on the edge of tomorrow
G
Live and Learn
         D
From the works of yesterday
Em
Live and Learn!
C
If you beg or if you borrow
G
Live and Learn
         D
You may never find your way



E|----------------------|
B|----------------------|
G|-----6-----6-4-2-2-4-4|
D|----------------------|
A|-4-4---4-4------------|
E|----------------------|



E|-------------------------|
B|-------------------------|
G|-----4-6-----6-4----4-6-6|
D|-------------------------|
A|-4-4-----4-4----4-4------|
E|-------------------------|



Em                C
Can you feel life tangle you up inside?
G                                  D
Yeah! Now you're face down on the floor!



D|-6-2-4-6|

Ooh!


F#m           A
But you can't save your sorrow
Em             G
You've paid in trade
F#m           A
And you can't help but follow
Em                               G
It puts you right back where you came



G|-6-6-6-6|



Em
Live and Learn!
C
Hanging on the edge of tomorrow
G
Live and Learn
         D
From the works of yesterday
Em
Live and Learn!
C
If you beg or if you borrow
G
Live and Learn
        D
You may never find your way



E|----------------------------|
B|----------------------------|
G|-----6-----6-4-2-2-4-4---4-4|
D|----------------------------|
A|-4-4---4-4-------------4----|
E|----------------------------|



Oh, oh, oh, oh yeah!


(solo)


F#m                      A
There's a face searching far, so far and wide!
Em                        G
There's a place where you dream, you'll never find
C                   D
Hold on to what if, hold on to what if!



G|-4-4----|
D|-----4-4|



Em
Live and Learn!
C
Hanging on the edge of tomorrow
G
Live and Learn
         D
From the works of yesterday
Em
Live and Learn!
C
If you beg or if you borrow
G
Live and Learn
         D
You may never find your way
Em
Live and Learn!
C
Hanging on the edge of tomorrow
G
Live and Learn
         D
From the works of yesterday
Em
Live and Learn!
C
If you beg or if you borrow
G
Live and Learn
         D
You may never find your way



E|----------------------------------------|
B|----------------------------------------|
G|----------------------------------------| (x2)
D|-----2-2-4------2-2-4-----2-2-4--6-5-4-2|
A|-4-4--------2-2-------2-2---------------|
E|----------------------------------------|



E|----------------------|
B|----------------------|
G|-----4-----4-----4---4|
D|----------------------|
A|-4-4---4-4---4-4---4--|
E|----------------------|


E|----------------------|
B|----------------------|
G|----------------------|
D|---------4-4-2--------|
A|-2-4-2-2--------------|
E|----------------------|

TOP cifras de Crush 40

  1. Sonic Heroes
  2. What Im Made
  3. What Im Made Of
  4. Live & Learn
  5. All Hail Shadow Intro
  6. I Am All Of Me
  7. Metal Harbor
  8. Un-gravity

Pela Web