Cifras Web
Crush 40

Metal Harbor

Crush 40

7 acessos

well, the song is really played with 2 guitars, but i only have 1 XD
and i'm only one person, so i made this tab to atab for 1 person.
hope you'll enjoy my first tab.

Intro:


|----------------------------------------------------------------------|
|----------------------------------------------------------------------|
|----------------------------------------------------------------------|
|-5-5-5555--3-3-3333------------3-3-3333--5-5-5555--3-3-3333-----------|
|-3-3-3333--1-1-1111--3-3-3333--1-1-1111--3-3-3333--1-1-1111--3-3-3333-|
|---------------------1-1-1111--------------------------------1-1-1111-|



|---------|
|---------|
|---------|
|---------|
|-666-888-|
|-444-666-|


Main:   
x2 (0:09)

|--------------------------------|
|--------------------------------|
|----5-5----3-3---3--------------|
|---------5-----5---7-5-3--6-5-3-|
|-3------------------------------|
|--------------------------------|


(0:19)

|--------------------------------------------------|
|--------------------------------------------------|
|--0--------------------------0------------------5~|
|-2-2-2-2-2-2-2-3-5-32-------2-2-2-2-2-2-2-3-5-32--|
|---------------------3----------------------------|
|--------------------------------------------------|


(0:28)

|----------------------------------------|
|-------3---5-----------------3--------3-|
|-2-5-3-------5-4-0---2-5-4-5---5--2-4---|
|----------------------------------------|
|----------------------------------------|
|----------------------------------------|


(0:37)

|--------------------------------------------------|
|--------------------------------------------------|
|--0--------------------------0------------------5~|
|-2-2-2-2-2-2-2-3-5-32-------2-2-2-2-2-2-2-3-5-32--|
|---------------------3----------------------------|
|--------------------------------------------------|


(0:46)

|----------------------------------------------------|
|---------3------3-5-3-------------3----4--3--6--5~6-|
|-2-5-4-5---5-0--------5---2-5-4-5---5---------------|
|----------------------------------------------------|
|----------------------------------------------------|
|----------------------------------------------------|



|------------------------------------------------------------------|
|-8--------------8-------------------3-----8------------8-10-------|
|----10-9-7--5~----10-9-7--5~--2-5-4---5~----10-9-7-5~-------9-7-5~|
|------------------------------------------------------------------|
|------------------------------------------------------------------|
|------------------------------------------------------------------|



|--------------|
|---5-8---6~86-|
|-5------------|
|--------------|
|--------------|
|--------------|


And again with some other stuff


x2 (1:13)

|--------------------------------|
|--------------------------------|
|----5-5----3-3---3--------------|
|---------5-----5---7-5-3--6-5-3-|
|-3------------------------------|
|--------------------------------|


(1:23)

|--------------------------------------------------|
|--------------------------------------------------|
|--0--------------------------0------------------5~|
|-2-2-2-2-2-2-2-3-5-32-------2-2-2-2-2-2-2-3-5-32--|
|---------------------3----------------------------|
|--------------------------------------------------|

(1:32)

|----------------------------------------|
|-------3---5-----------------3--------3-|
|-2-5-3-------5-4-0---2-5-4-5---5--2-4---|
|----------------------------------------|
|----------------------------------------|
|----------------------------------------|


(1:41)

|--------------------------------------------------|
|--------------------------------------------------|
|--0--------------------------0------------------5~|
|-2-2-2-2-2-2-2-3-5-32-------2-2-2-2-2-2-2-3-5-32--|
|---------------------3----------------------------|
|--------------------------------------------------|


(1:50)

|----------------------------------------------------|
|---------3------3-5-3-------------3----4--3--6--5~6-|
|-2-5-4-5---5-0--------5---2-5-4-5---5---------------|
|----------------------------------------------------|
|----------------------------------------------------|
|----------------------------------------------------|



|------------------------------------------------------------------|
|-8--------------8-------------------3-----8------------8-10-------|
|----10-9-7--5~----10-9-7--5~--2-5-4---5~----10-9-7-5~-------9-7-5~|
|------------------------------------------------------------------|
|------------------------------------------------------------------|
|------------------------------------------------------------------|



|------------------|
|---5-8---6~86-865-|
|-5----------------|
|------------------|
|------------------|
|------------------|


(2:19)

|------------------------------------------------------------------|
|-8--------------8-------------------3-----8------------8-10-------|
|----10-9-7--5~----10-9-7--5~--2-5-4---5~----10-9-7-5~-------9-7-5~|
|------------------------------------------------------------------|
|------------------------------------------------------------------|
|------------------------------------------------------------------|



|------------------|
|---5-8---6~86-865-|
|-5----------------|
|------------------|
|------------------|
|------------------|

v

TOP cifras de Crush 40

  1. Sonic Heroes
  2. What Im Made
  3. What Im Made Of
  4. Live & Learn
  5. All Hail Shadow Intro
  6. I Am All Of Me
  7. Metal Harbor
  8. Un-gravity

Pela Web