Cifras Web
Crush 40

What Im Made Of

Crush 40

8 acessos

Track: What I’m Made Of
Album: Sonic Heroes (Triple Threat?)
Tabbed by: Mick Molloy
Duration: (3:43)
Difficulty:????

Verse
	I don't care what you're thinking as you turn to me

E|------------------------------------------------------------------------------|
B|------------------------------------------------------------------------------|
G|-----2-------0-----0-----------0--------2---0------------0--2-----2\----------|
D|-----2-------0-----0-----------2--------2---0------------0--2--2--2\----------|
A|-----0-------0-----0-----------3--------0---0------------0--0-----0\----------|
E|-------------------3-----------2----------------------------------------------|


	Cause what I have in my two hands is enough to set me free

E|------------------------------------------------------------------------------|
B|------------------------------------------------------------------------------|
G|------------0------2-------0------0------------------------------------2----4-|
D|------------2------2-------2------0--------2-----2---2---4--2--2--2----2----4-|
A|------------3------0-------3------0--------2-----2---2---4--2--2--2----0----2-|
E|------------2--------------2--------------------------------------------------|



	I could fight the feeling to resist it over time

E|------------------------------------------------------------------------------|
B|------------------------------------------------------------------------------|
G|-----2-------0----------0-------0--------2---0-----2--------------------------|
D|-----2-------0----------0-------2--------2---0-----2--------------------------|
A|-----0-------0----------0-------3--------0---0-----0-------5------------------|
E|------------------------3-------2------------------------------------------|



But when it's just too much to take you sneak up from behind

E|------------------------------------------------------------------------------|
B|------------------------------------------------------------------------------|
G|----------0--------2---------0-------0----------------------------------------|
D|----------2--------2---------2-------0-----2-----2---2---4--2--2--2-----------|
A|----------3--------0---------3-------0-----2-----2---2---4--2--2--2-----------|
E|----------2------------------2------------------------------------------------|



Prechorus
	Is it me 	You say 	you're looking for

E|-------------------------------------------------------------------------------|
B|-------------------------------------------------------------------------------|
G|------------0------------0------------------2------0-----0--2-----2\-----------|
D|------------2------------0------------------2------0-----0--2--2--2\-----------|
A|------------3------------0------------------0------0-----0--0-----0\-----------|
E|------------2------------3-----------------------------------------------------|



	Let me show you who I am and what I'm here for... Here for

E|------------------------------------------------------------------------------|
B|------------------------------------------------------------------------------|
G|-------------0------------0-----------------2----0----------------------------|
D|-------------2------------0-----------------2----0------2----0----------------|
A|-------------3------------0-----------------0----0------2----0----------------|
E|-------------2------------3---------------------------------------------------|



	YEEEEAAAAAHHHHHHHH!

E|------------------------------------------------------------------------------|
B|------------------------------------------------------------------------------|
G|------0--2-----2-----2--2-----------------------------------------------------|
D|------0--2--2--2--2--2--2-----------------------------------------------------|
A|------0--0-----0-----0--0-----------------------------------------------------|
E|------------------------------------------------------------------------------|

Chorus
	Try to reach inside of me


E|------------------------------------------------------------------------------|
B|------6\5----5-----3---------3-----8\6----------------------------------------|
G|------5\4----4-----2------2--2--------7\5-------------------------------------|
D|------3\2----2-----0---------0------------------------------------------------|
A|------------------------------------------------------------------------------|
E|------------------------------------------------------------------------------|


	Try to drain my energy

E|------------------------------------------------------------------------------|
B|------6\5----5-------8---8---8--8---------------------------------------------|
G|------5\4----4-------7-2-7---7--7---------------------------------------------|
D|------3\2----2-------5---5---5--5---------------------------------------------|
A|------------------------------------------------------------------------------|
E|------------------------------------------------------------------------------|


	Let me show you just what I'm made of

E|------------------------------------------------------------------------------|
B|------6------3-------------8----6---5----3------------------------------------|
G|------5------2-------------7----5---4----2------------------------------------|
D|------3------0-------------5----3---2----0------------------------------------|
A|------------------------------------------------------------------------------|
E|------------------------------------------------------------------------------|



	Simple curiousity

E|------------------------------------------------------------------------------|
B|------6\5----5---3----3------------8\6----------------------------------------|
G|------5\4----4---2-2--2---------------7\5-------------------------------------|
D|------3\2----2---0----0-------------------------------------------------------|
A|------------------------------------------------------------------------------|
E|------------------------------------------------------------------------------|



Tries to take a bite of me

E|------------------------------------------------------------------------------|
B|------6\5------5------8-------8---8--8----------------------------------------|
G|------5\4------4------7----2--7---7--7----------------------------------------|
D|------3\2------2------5-------5---5--5----------------------------------------|
A|------------------------------------------------------------------------------|
E|------------------------------------------------------------------------------|


	Let me show you just what I'm made of now

E|------------------------------------------------------------------------------|
B|------6------3-------------8----6---5----6--3---------------------------------|
G|------5------2-------------7----5---4----5--2---------------------------------|
D|------3------0-------------5----3---2----3--0---------------------------------|
A|------------------------------------------------------------------------------|
E|------------------------------------------------------------------------------|


Verse
	Like a million faces I've recognized them all

E|------------------------------------------------------------------------------|
B|------------------------------------------------------------------------------|
G|-----2-----0--------0------0----2---0------------0--2-----2\------------------|
D|-----2-----0--------0------2----2---0------------0--2--2--2\------------------|
A|-----0-----0--------0------3----0---0------------0--0-----0\------------------|
E|--------------------3------2--------------------------------------------------|


	And one by one they all become a number as they fall

E|------------------------------------------------------------------------------|
B|------------------------------------------------------------------------------|
G|----------0------2--------0---0-----------------------------------2----4\-----|
D|----------2------2--------2---0--------2--2---2--4-----2--2--2----2----4\-----|
A|----------3------0--------3---0--------2--2---2--4-----2--2--2----0----2\-----|
E|----------2---------------2---------------------------------------------------|


	In the face of reason I can't take no more

E|------------------------------------------------------------------------------|
B|------------------------------------------------------------------------------|
G|-----2-------0-------0--------------2---0-----2-------------------------------|
D|-----2-------0-------0-p2--------2---0-----2-------------------------------|
A|-----0-------0-------0--------------0---0-----0-------5-----------------------|
E|---------------------3-----------------------------------------------------|


	And One by one they all become a black mark on the floor

E|------------------------------------------------------------------------------|
B|------------------------------------------------------------------------------|
G|----------0------2---------0--0-----------------------------------------------|
D|----------2------2---------2--0--------2-----2----2--4---2--2--2--------------|
A|----------3------0---------3--0--------2-----2----2--4---2--2--2--------------|
E|----------2----------------2--------------------------------------------------|



Prechorus
	Is it me 	You say 	you're looking for

E|-------------------------------------------------------------------------------|
B|-------------------------------------------------------------------------------|
G|------------0------------0------------------2------0-----0--2-----2\-----------|
D|------------2------------0------------------2------0-----0--2--2--2\-----------|
A|------------3------------0------------------0------0-----0--0-----0\-----------|
E|------------2------------3-----------------------------------------------------|



	Let me show you who I am and what I have in store... In store

E|------------------------------------------------------------------------------|
B|------------------------------------------------------------------------------|
G|-------------0-------------0--------------2------0----------------------------|
D|-------------2-------------0--------------2------0---------2--0---------------|
A|-------------3-------------0--------------0------0---------2--0---------------|
E|-------------2-------------3--------------------------------------------------|


	HEY HEY YEAHHHHHHH!

E|------------------------------------------------------------------------------|
B|------------------------------------------------------------------------------|
G|------0--2-----2-----2--2-----------------------------------------------------|
D|------0--2--2--2--2--2--2-----------------------------------------------------|
A|------0--0-----0-----0--0-----------------------------------------------------|
E|------------------------------------------------------------------------------|


Chorus
	Try to reach inside of me


E|------------------------------------------------------------------------------|
B|------6\5----5-----3---------3-----8\6----------------------------------------|
G|------5\4----4-----2------2--2--------7\5-------------------------------------|
D|------3\2----2-----0---------0------------------------------------------------|
A|------------------------------------------------------------------------------|
E|------------------------------------------------------------------------------|


	Try to drain my energy

E|------------------------------------------------------------------------------|
B|------6\5----5-------8---8---8--8---------------------------------------------|
G|------5\4----4-------7-2-7---7--7---------------------------------------------|
D|------3\2----2-------5---5---5--5---------------------------------------------|
A|------------------------------------------------------------------------------|
E|------------------------------------------------------------------------------|


	Let me show you just what I'm made of

E|------------------------------------------------------------------------------|
B|------6------3-------------8----6---5----3------------------------------------|
G|------5------2-------------7----5---4----2------------------------------------|
D|------3------0-------------5----3---2----0------------------------------------|
A|------------------------------------------------------------------------------|
E|------------------------------------------------------------------------------|


Simple curiousity

E|------------------------------------------------------------------------------|
B|------6\5----5---3----3------------8\6----------------------------------------|
G|------5\4----4---2-2--2---------------7\5-------------------------------------|
D|------3\2----2---0----0-------------------------------------------------------|
A|------------------------------------------------------------------------------|
E|------------------------------------------------------------------------------|


	Tries to take a bite of me

E|------------------------------------------------------------------------------|
B|------6\5------5------8-------8---8--8----------------------------------------|
G|------5\4------4------7----2--7---7--7----------------------------------------|
D|------3\2------2------5-------5---5--5----------------------------------------|
A|------------------------------------------------------------------------------|
E|------------------------------------------------------------------------------|


	Let me show you just what I'm made of now

E|------------------------------------------------------------------------------|
B|------6------3-------------8----6---5----6--3---------------------------------|
G|------5------2-------------7----5---4----5--2---------------------------------|
D|------3------0-------------5----3---2----3--0---------------------------------|
A|------------------------------------------------------------------------------|
E|------------------------------------------------------------------------------|


Bridge

	If you could take another life long try

E|------------------------------------------------------------------------------|
B|------------------------------------------------------------------------------|
G|---------2---------4------------0---------------------------------------------|
D|---------2---------4------------2---------------------------------------------|
A|---------0---------2------------3---------------------------------------------|
E|--------------------------------2---------0h2-2-2h4---------------------------|


	You can take another try

E|------------------------------------------------------------------------------|
B|------------------------------------------------------------------------------|
G|------2-------4------------0--------------------------------------------------|
D|------2-------4------------2--------------------------------------------------|
A|------0-------2------------3----5---------------------------------------------|
E|---------------------------------------------------------------------------|


Solo

E|--2---------4/7--4--5--2--0--2--0---------7--5--------------------------------|
B|-----0h2---------------------------2-----5------5--7--5-7--5------------------|
G|--------------------------------------4/6--------------------6----------------|
D|---------------------------------------------------------------7--------------|
A|------------------------------------------------------------------------------|
E|------------------------------------------------------------------------------|



E|--------------------5-7/9b-7-------10--16-----15------14----------------------|
B|-----4444-5555-7777--------------10------14-13--13-12---12--------------------|
G|---4--------------------------------------------------------------------------|
D|------------------------------------------------------------------------------|
A|------------------------------------------------------------------------------|
E|------------------------------------------------------------------------------|



E|------------------------------------------------------------------------------|
B|------------------------------------------------------------------------------|
G|---12/14-13-9-11b-9\7-7-6---------7-6b-7-9-9/11-9-----------------------------|
D|---------------------------7-9-9----------------------------------------------|
A|------------------------------------------------------------------------------|
E|------------------------------------------------------------------------------|



E|------------------------------------------------------------------------------|
B|---------14-13-------13-12----------------------------------------12b---------|
G|---11-14-------11-14-------11-------14b-11-11-11-11-14-14-13b-14b-------------|
D|------------------------------14-14-------------------------------------------|
A|------------------------------------------------------------------------------|
E|------------------------------------------------------------------------------|




E|------------------------------------------------------------------------------|
B|---17-17p14p12-17-17p14p12-17-17p14p12-17-17p14p12-17-17p14p12-17-17p14p12----|
G|------------------------------------------------------------------------------|
D|------------------------------------------------------------------------------|
A|------------------------------------------------------------------------------|
E|------------------------------------------------------------------------------|




E|------------------------------------------------------------------------------|
B|17-17p14p12-17-17p14p12-12-14/17----------------------------------------------|
G|------------------------------------------------------------------------------|
D|------------------------------------------------------------------------------|
A|------------------------------------------------------------------------------|
E|------------------------------------------------------------------------------|


Chorus
	Try to reach inside of me


E|------------------------------------------------------------------------------|
B|------6\5----5-----3---------3-----8\6----------------------------------------|
G|------5\4----4-----2------2--2--------7\5-------------------------------------|
D|------3\2----2-----0---------0------------------------------------------------|
A|------------------------------------------------------------------------------|
E|------------------------------------------------------------------------------|


	Try to drain my energy

E|------------------------------------------------------------------------------|
B|------6\5----5-------8---8---8--8---------------------------------------------|
G|------5\4----4-------7-2-7---7--7---------------------------------------------|
D|------3\2----2-------5---5---5--5---------------------------------------------|
A|------------------------------------------------------------------------------|
E|------------------------------------------------------------------------------|



Let me show you just what I'm made of

E|------------------------------------------------------------------------------|
B|------6------3-------------8----6---5----3------------------------------------|
G|------5------2-------------7----5---4----2------------------------------------|
D|------3------0-------------5----3---2----0------------------------------------|
A|------------------------------------------------------------------------------|
E|------------------------------------------------------------------------------|



	Simple curiousity

E|------------------------------------------------------------------------------|
B|------6\5----5---3----3------------8\6----------------------------------------|
G|------5\4----4---2-2--2---------------7\5-------------------------------------|
D|------3\2----2---0----0-------------------------------------------------------|
A|------------------------------------------------------------------------------|
E|------------------------------------------------------------------------------|


	Tries to take a bite of me

E|------------------------------------------------------------------------------|
B|------6\5------5------8-------8---8--8----------------------------------------|
G|------5\4------4------7----2--7---7--7----------------------------------------|
D|------3\2------2------5-------5---5--5----------------------------------------|
A|------------------------------------------------------------------------------|
E|------------------------------------------------------------------------------|


	Let me show you just what I'm made of now

E|------------------------------------------------------------------------------|
B|------6------3-------------8----6---5----6--3---------------------------------|
G|------5------2-------------7----5---4----5--2---------------------------------|
D|------3------0-------------5----3---2----3--0---------------------------------|
A|------------------------------------------------------------------------------|
E|------------------------------------------------------------------------------|


Shortened Chorus (You play the intro for this bit, but I don’t know how it goes)
Try to reach inside of me
Try to drain my energy
Let me show you just what I'm Made Of!

NOTES
I don’t know the intro, can someone help? The solo is a simpler version of the solo
on this website for the same song, you can use the other solo if you find it easier. There
also a few flashy bits added in now and then (especially the second verse) that I 
added because I don’t know them. Feel free to modify this tab, but if you make any
please submit it so everyone can learn.

TOP cifras de Crush 40

  1. Sonic Heroes
  2. What Im Made
  3. What Im Made Of
  4. Live & Learn
  5. All Hail Shadow Intro
  6. I Am All Of Me
  7. Metal Harbor
  8. Un-gravity

Pela Web