Cifras Web
Cuca

La Balad

Cuca

6 acessos

Date: Fri, 10 Oct 1997 18:59:17 -0600
From: Inadaptado Loco 


intro y muchos versos
guitarra acustica


|---------------------------------------|e
|----0--------2---------0--------0------|B
|---2--2---2--2--------2--2---2--2------|G
|--3----3-2---2-------3----3-2---2------|D
|-0------0----0------0------0----0------|A
|---------------------------------------|E


Oh lo vivi

|---2---3---2---3---2---3---2---0-----------|e
|---3---3---3---3---3---3---3---3-----------|B
|---2---2---2---2---2---2---2---2-----------|G
|---0---0---0---0---0---0---0---0-----------|D
|-------------------------------------------|A
|-------------------------------------------|E


estos son los acordes que se tocan en el coro so tienes=20
la rola te daras cuenta de como se tocan
Coro

|--4---5---0---4-----4---5---0---2-------|e
|--5---5---0---4-----5---5---0---4-------|B
|--6---6---1---5-----6---6---1---4-------|G
|--6---7---2---6-----6---7---2---4-------|D
|--4---7---2---6-----4---7---2---2-------|A
|----------------------------------------|E

 (inmediatamente
  aqui) =20
    |
   \|/

|--4---4--------5--------4--------0-------0-----|e
|--5--5-5------5-5------5-5------0-0------2-----|B
|--6-6---6----6---6----6---6----2---2---2-2-----|G
|--66-----6--7-----7--6-----6--3-----3-2--2-----|D
|--4--------7--------4--------0-------0---0-----|A
|-----------------------------------------------|E



guitarra el=E9ctrica
con distorsion.
  x3=20

|--------------0--------|e
|--------------0--------|B
|--5--7--5--4-----------|G
|--7--7--7--6-----------|D
|-----------------------|A
|-----------------------|E


  x2

|--1-1-1-3-1---0-0-0--3-1---0-0-0----|e
|--3-3-3-3-3---2-2-2--3-3---2-2-2----|B
|--2-2-2-2-2---2-2-2--2-2---2-2-2----|G
|--------------2-2-2--------2-2-2----|D
|------------------------------------|A
|------------------------------------|E



Salvame
  x2

|-------------------------------------------------------|e
|-6-x-6-6-6---------------------------------------------|B
|-7-x-7-7-7----7-x-7-7-7---6-x-6-6-6-x-6-x-6-6-6--------|G
|-7-x-7-7-7----8-x-8-8-8---8-x-8-8-8-x-8-x-8-8-8--------|D
|-5-x-5-5-5----8-x-8-8-8---8-x-8-8-8-x-8-x-8-8-8--------|A
|--------------6-x-6-6-6---6-x-6-6-6-x-8-x-8-8-8--------|E



Coro c/dist.


|--------------------------------------------------------------|e
|-------------------------9-x-x-x-9----------------------------|B
|-6-x-x-x-6---7-x-x-x-7---9-x-x-x-9----------------------------|G
|-6-x-x-x-6---7-x-x-x-7---9-x-x-x-9----9-9-9-9-9-9-------------|D
|-4-x-x-x-4---5-x-x-x-5---7-x-x-x-7----9-9-9-9-9-9-------------|A
|--------------------------------------7-7-7-7-7-7-------------|E



|--------------------------------------------------------------|e
|-------------------------9-x-x-x-9----------------------------|B
|-6-x-x-x-6---7-x-x-x-7---9-x-x-x-9----------------------------|G
|-6-x-x-x-6---7-x-x-x-7---9-x-x-x-9----9-9-9-9-9-9-------------|D
|-4-x-x-x-4---5-x-x-x-5---7-x-x-x-7----9-9-9-9-9-9-------------|A
|--------------------------------------7-7-7-7-7-7-------------|E




|--------------------------------------------------------|e
|--------------------------------------------------------|B
|-6-4-6-\-------------9-x-x-9-x-x-9-x-x------------------|G
|-6-4-6-\---7-6-7-\---9-x-x-9-x-x-9-x-x---9-9-9-9-9-9----|D
|-----------7-6-7-\---7-x-x-7-x-x-7-x-x---9-9-9-9-9-9----|A
|-----------------------------------------7-7-7-7-7-7----|E




|--------------------------------------------------------|e
|--------------------------------------------------------|B
|-6-4-6-\-------------9-x-x-9-x-x-9-x-x------------------|G
|-6-4-6-\---7-6-7-\---9-x-x-9-x-x-9-x-x---9-9-9-9-9-9----|D
|-----------7-6-7-\---7-x-x-7-x-x-7-x-x---9-9-9-9-9-9----|A
|-----------------------------------------7-7-7-7-7-7----|E


outro
guitarra acustica

|-----4---------5------------------------7----------|e
|----5-5-------5-5------9-7h9p7--------7--7---------|B
|---6---6-----6---6----9-------9------8----8--------|G
|--6-----6---7-----7--9---------9----9------9-------|D
|-4------------------7-----------7------------------|A
|----------5-----------------------7----------------|E




|------5------5----------------------|e
|-----5-5-----5----------------------|B
|----6---6----6----------------------|G
|---7-----7---7----------------------|D
|-------------7----------------------|A
|-5-----------5----------------------|E


Alguan duda o comentario escribir a *

tabulada por el kami-kaze, o inadaptado loco, como me gustes llamar
^_^


--------------FF6ABD31DF

TOP cifras de Cuca

  1. Matame Antes
  2. Hijo Del Lechero
  3. La Balad
  4. Alcohol Y Rocanrol
  5. El Son Del Dolor

Pela Web