Cifras Web
Cute Is What We Aim For

Curse Of Curves

Cute Is What We Aim For

7 acessos

note: the chords aren't shown as many times as they're played.

Verse:

e|-----------------------------------------------------------------|
B|-----------------------------------------------------------------|
G|--7-7-7-7-7-7-7---5-5-5-5-5-5--10-10-10-10-10-10--3-3-3-3-3-3-3--|
D|--7-7-7-7-7-7-7---5-5-5-5-5-5--10-10-10-10-10-10--3-3-3-3-3-3-3--|
A|--5-5-5-5-5-5-5---3-3-3-3-3-3--8--8--8--8--8--8---1-1-1-1-1-1-1--|
E|-----------------------------------------------------------------|

[Pretty much palm mute the whole time]
[ps. it might sound better to mute the g string, whatever.]

Pre chorus: (The inside lingo had me at hello..)

e|------------------------|
B|------------------------|
G|-3---5-------3--5-------|
D|-3---5---3---3--5---3---|
A|-1---3---3---1--3---3---|
E|---------1----------1---|


Chorus:

e|----------------------------------------|
B|----------------------------------------|
G|--------5----3-3-3-3----------5---3-----|
D|--3-----5----3-3-3-3-----3----5---3-----|
A|--3-----3----1-1-1-1-----3----3---1-----|
E|--1----------------------1--------------|


Verse:

e|----------------------------------------------------------------|
B|----------------------------------------------------------------|
G|--7-7-7---7-7-7---5-5-5---5-5--10-10---10-10-10--3-3-3---3-3-3--|
D|--7-7-7---7-7-7---5-5-5---5-5--10-10---10-10-10--3-3-3---3-3-3--|
A|--5-5-5---5-5-5---3-3-3---3-3--8--8----8--8--8---1-1-1---1-1-1--|
E|----------------------------------------------------------------|


Pre chorus: 

e|---------------------------|
B|---------------------------|
G|-3---5-------3--5----------|
D|-3---5---3---3--5---3------|
A|-1---3---3---1--3---3------|
E|---------1----------1------|


Chorus: [The second one changes a bit]

e|----------------------------------------------------------------|
B|----------------------------------------------------------------|
G|--------5----3-3-3-3----------5---3----7---5---3-------5---3----|
D|--3-----5----3-3-3-3-----3----5---3----7---5---3---3---5---3----|
A|--3-----3----1-1-1-1-----3----3---1----5---3---1---3---3---1----|
E|--1----------------------1-------------------------1------------|


Bridge: (We all have teeth that can bite underneath..)

e|--------------------------------------|
B|--------------------------------------|
G|--7-----3----------7----3-------------|
D|--7-----3-----3----7----3-----3-------|
A|--5-----1-----3----5----1-----3-------|
E|--------------1---------------1-------|


Guitar 2 [during bridge/chorus/outro:
e|----5-8-5----3----3-----|
B|--6--------6---6--------|
G|------------------------|
D|------------------------|
A|------------------------|
E|------------------------|

TOP cifras de Cute Is What We Aim For

  1. Fourth Drink Instinct Intro
  2. Fourth Drink Instict Intro
  3. Hip Hop At Ihop Intro
  4. Lyrical Lies
  5. Risque
  6. The Fourth Drink Instinct
  7. Finger Twist And Split
  8. Forth Drink Instinct Solo
  9. Hip Hop At Ihop
  10. Sweat The Battle Before The Battle Sweats You

Pela Web