Cifras Web
Cute Is What We Aim For

Finger Twist And Split

Cute Is What We Aim For

8 acessos

This is my first ever tab so if its awful please forgive me.
Im tabing it from the Demo version not the Cd one im not sure if there is a difference 
i never heard the cd version.

// = Slides



e--9--9--9--9-7-7-7-7-5-5-5-5-0-0-0-0-|
b-10-10-10-10-9-9-9-9-7-7-7-7-5-5-5-5-|
g-------------------------------------|
d-------------------------------------|
a-------------------------------------|
E-------------------------------------|


** This Part is Played 6 times.**


e--9--9--9--9//7-7//-9--9--9--9//7-7-|
b-10-10-10-10//9-9//10-10-10-10//9-9-|
g------------------------------------|
d------------------------------------|
a------------------------------------|
E------------------------------------|



e-5-5-5-5//7-7//5-5-5-5//7-----------|
b-7-7-7-7//9-9//7-7-7-7//9-----------|
g------------------------------------|
d------------------------------------|
a------------------------------------|
E------------------------------------|


** This Part is Played 2 times. **

Chorus:

e------------------------------------|
b------------------------------------|
g-----------------9-9-9-9-9-9-9-9----|
d-7-7-7-7-7-7-7-7-9-9-9-9-9-9-9-9----|
a-7-7-7-7-7-7-7-7-7-7-7-7-7-7-7-7----|
E-5-5-5-5-5-5-5-5--------------------|




e------------------------------------|
b------------------------------------|
g-----------------7-7-7-7-7-7-7-7----|
d-7-7-7-7-7-7-7-7-7-7-7-7-7-7-7-7----|
a-7-7-7-7-7-7-7-7-5-5-5-5-5-5-5-5----|
E-5-5-5-5-5-5-5-5--------------------|


** This Part is Played 2 times. **

TOP cifras de Cute Is What We Aim For

  1. Fourth Drink Instinct Intro
  2. Fourth Drink Instict Intro
  3. Hip Hop At Ihop Intro
  4. Lyrical Lies
  5. Risque
  6. The Fourth Drink Instinct
  7. Finger Twist And Split
  8. Forth Drink Instinct Solo
  9. Hip Hop At Ihop
  10. Sweat The Battle Before The Battle Sweats You

Pela Web