Cifras Web
Cute Is What We Aim For

Hip Hop At Ihop Intro

Cute Is What We Aim For

9 acessos

this is kind of how I think the intro/chorus goes, but it probably isn't that accurate 
this is my first tab that I have done on my own.

*Verse*


e|----------------------------------------------------------|
B|----------------------------------------------------------|
G|----------------------------5-5-x-x-x---5-5-x-5-5-x-------|
D|----5-5-x-x-x---9-9-x-x-x---5-5-x-x-x---5-5-x-5-5-x-------|
A|----5-5-x-x-x---9-9-x-x-x---3-3-x-x-x---3-3-x-3-3-x-------|
E|----3-3-x-x-x---7-7-x-x-x---------------------------------|


*Chorus*



e|----2---0---3-------|
B|----3---1---3-------|
G|----2---0---0-------|
D|----0---2---0-------|
A|----0---3---2-------|
E|----0---0---3-------|



this is kind of like the basic patteren of the song...I think he maybe changes it up a 
bit in some of the chorus or something, but this is just a start.

TOP cifras de Cute Is What We Aim For

  1. Fourth Drink Instinct Intro
  2. Fourth Drink Instict Intro
  3. Hip Hop At Ihop Intro
  4. Lyrical Lies
  5. Risque
  6. The Fourth Drink Instinct
  7. Finger Twist And Split
  8. Forth Drink Instinct Solo
  9. Hip Hop At Ihop
  10. Sweat The Battle Before The Battle Sweats You

Pela Web