Cifras Web
Cute Is What We Aim For

Lyrical Lies

Cute Is What We Aim For

9 acessos

tabbed by andrew mcshan: *
Note; guitar 2 is from the demo version

Intro/Verse:
(Guitar 1)

e|-------------------|
B|-------------------|
G|---7---4---2---6---|
D|---0---0---0---0---|
A|---x---x---x---x---|
E|---7---3---2---5---|

[You can mute teh A string or not, whichev sounds better for you)


e|-------------------------------------------|
B|-------------------------------------------|
G|--4---6/7---4--4/6------7---4---2--6-------|
D|--0---0/0---0--0/0------0---0---0--0---x2--|
A|--x---x/x---x--x/x------x---x---x--x-------|
E|--3---5/7---3--3/5------7---3---2--5-------|


Chorus

e|-----------------------------------|
B|-----------------------------------|
G|--7---6---4---6----7---6---4---6---|
D|--0---0---0---0----0---0---0---0---|
A|--x---x---x---x----x---x---x---x---|
E|--7---5---3---5----7---5---3---5---|


Bridge

e|----------------------|
B|----------------------|
G|--7----3----7----6----|
D|--0----0----7----0----|
A|--x----x----5----x----|
E|--7----3---------5----|


Intro/Verse:
[Guitar 2)
e|-------------------------|
B|--7-7-7-7-7-7-7-7-7-7----|
G|--7-7-7-7-7-7-7-7-7-7----|
D|-------------------------|
A|-------------------------|
E|-------------------------|

TOP cifras de Cute Is What We Aim For

  1. Fourth Drink Instinct Intro
  2. Fourth Drink Instict Intro
  3. Hip Hop At Ihop Intro
  4. Lyrical Lies
  5. Risque
  6. The Fourth Drink Instinct
  7. Finger Twist And Split
  8. Forth Drink Instinct Solo
  9. Hip Hop At Ihop
  10. Sweat The Battle Before The Battle Sweats You

Pela Web