Cifras Web
Cute Is What We Aim For

Sweat The Battle Before The Battle Sweats You

Cute Is What We Aim For

8 acessos

Intro

e|-2---0---5--5-------------------------------------------------|
B|-2---0---5--5-------------------------------------------------|
G|-2---1---6--7-----------------4-4----------------------4-4----|
D|-4---2---7--7--4-4--4-4--4-4--4-4--2-2--4-4--4-4--4-4--4-4----|
A|-4---2---7--5--4-4--4-4--4-4--2-2--2-2--4-4--4-4--4-4--2-2----|
E|-2---0---5--5--2-2--2-2--2-2-------0-0--2-2--2-2--2-2---------|


Verse
[guitar 1]

e|--------------------------------------------------------------|
B|--------------------------------------------------------------|
G|----------------4---------------------4-4--------4-4/6--7-7---|
D|-4-4--4-4--4-4--4--2--4-4--4-4--4-4---4-4--2-2---4-4/6--7-7---|
A|-4-4--4-4--4-4--2--2--2-4--4-4--4-4---2-2--2-2---2-2/4--5-5---|
E|-2-2--2-2--2-2-----0--2-2--2-2--2-2--------0-0----------------|


[guitar 2]

e|----------------------------------------------------------------------|
B|----------------------------------------------------------------------|
G|--11-11-11-11-11-11-14--9--------14-14-13-14-14-13-14-14-13-14-13-----|
D|--x--x--x--x--x--x--x---x-x2--0~~x--x--x--x--x--x--x--x--x--x--x------|
A|--9--9--9--9--9--9--12--7-----0~~12-12-12-12-12-12-12-12-12-12-12-----|
D|------------------------------0~~-------------------------------------|


Chorus

e|---5---5---2-2-4-5--5--------|
B|---5---5---2-2-4-5--5--------|
G|---5---7---2-2-4-6--7--------|
D|---7---7---4-4-6-7--7----x2--|
A|---7---5---4-4-6-7--5--------|
E|---5---5---2-2-4-5--5--------|


[guitar 2]

e|-----------------------------|
B|-----------------------------|
G|-----------------------------|
D|---7---0---4-4-6-7--0----x2--|
A|---7---0---4-4-6-7--0--------|
D|---7---0---4-4-6-7--0--------|


Verse 2 is the same except the F#:244 is palm muted.

Bridge
[guitar 1]

e|-2--0--5--------2--0--5--------2--0--5--------2-0---------------------|
B|-2--0--5--------2--0--5--------2--0--5--------2-0---------------------|
G|-2--1--7--6-7-6-2--1--7--6-7-6-2--1--7--6-7-6-2-1-7-7-7-7-7--9-9-9-9--|
D|-4--2--7--------4--2--7--------4--2--7--------4-2-7-7-7-7-7--9-9-9-9--|
A|-4--2--5--------4--2--5--------4--2--5--------4-2-5-5-5-5-5--7-7-7-7--|
E|~2--0--5--------2--0--5--------2--0--5--------2-0---------------------|

                                                  pm...................

[guitar 2)
e|--------------|
B|--------------|
G|--------------|
D|-4--2--0------|
A|-4--2--0------|
D|-4--2--0~~----|

TOP cifras de Cute Is What We Aim For

  1. Fourth Drink Instinct Intro
  2. Fourth Drink Instict Intro
  3. Hip Hop At Ihop Intro
  4. Lyrical Lies
  5. Risque
  6. The Fourth Drink Instinct
  7. Finger Twist And Split
  8. Forth Drink Instinct Solo
  9. Hip Hop At Ihop
  10. Sweat The Battle Before The Battle Sweats You

Pela Web