Cifras Web
Damian Marley

Stuck In Between

Damian Marley

12 acessos

Intro

|----------------------------------------------------|
|----------------------------------------------------|
|----------------------------------------------2bbbb-|
|--------5-7-7b-7-5-5h7p5----------------------------|
|-5-7b-7------------------7-7-5-7----2-0---0-2-------|
|----------------------------------------3-----------|


Verse   First part is played through the entire song, second part is just a little riff 
plays at the end of some verses

|-----------|-----------------------------------------|
|-----------|-----------------------------------------|
|-----------|-----------------------------------------|
|--------2--|--14-12-14-12-14-12-14-12-14-12---12-14--|
|--2---2----|--------------------------------14-------|
|----3------|-----------------------------------------|
The second part can also be played like this


|----------------------------------------------------|
|----------------------------------------------------|
|-9-7-9-7-9-7-9-7-9-7---7-9--------------------------|
|---------------------9------------------------------|
|----------------------------------------------------|
|----------------------------------------------------|
Along with the other verse part, this is played with a reggae upstroke (listen to the 

for the correct beat)

|-7-7-7----------------------------------------------|
|-8-8-8----------------------------------------------|
|-9-9-9----------------------------------------------|
|----------------------------------------------------|
|----------------------------------------------------|
|----------------------------------------------------|


That's it, it's a pretty awesome song.

TOP cifras de Damian Marley

  1. Set Up Shop
  2. Welcome To Jamrock
  3. There For You
  4. Stuck In Between
  5. Pimpa's Paradise
  6. Road To Zion
  7. The Mission
  8. Medication
  9. Liquor Store Blues
  10. Mr. Marley

Pela Web