Cifras Web
Daniel

Agora estou sofrendo

Daniel

13 acessos

-> Solo Inicial - 1ª Parte

e|----------------------------------------
B|--11-10-------------------------10------
G|--------12-10-8-7-7-5-7-12-10-12--------  
D|----------------------------------------
A|----------------------------------------

-> Solo Inicial - 2ª Parte (Muda só o final)


e|----------------------------------------
B|--11-10---------------------------------
G|--------12-10-8-7-7-5-7-12-10-12-11-10--
D|----------------------------------------
A|----------------------------------------



F9*
 Não há amor para mim não
Dm*
 Você estava mentindo
F9*                    Am
 Diga logo que não me amou
     C             F9         G            Am 
Que não gostou de mim, não sente amor por mim

[Solo Inicial]

F9*
 Quais as armas que encontra ?
Dm*
 Pra fazer seus encantos
F9*                   Am
 Derramar seu amor em mim
     C             F9        G
Mas não gostou de mim, não sente amor...

   .  C             Dm
   :   Me fere, me risca de amor
   :  Am
   :   Me foge, me alimenta
R  :  F9        C         Bb
e  :   Não sabe que já me conquistou
f  :    G
r  :  Agora estou sofrendo
ã  :  C             Dm
o  :   Me fere, me risca de amor
   :  Am
   :   Me foge, me alimenta
   :  F9        C         Bb
   :   Não sabe que já me conquistou
   :    G                  F9*  Dm*
   .  Agora estou sofrendo

F9*
 Não há amor para mim não
Dm*
 Você estava mentindo
F9*                    Am
 Diga logo que não me amou
     C             F9  
Que não gostou de mim.

F9*
 Quais as armas que encontra ?
Dm*
 Pra fazer seus encantos
F9*                   Am
 Derramar seu amor em mim
     C             F9        G
Mas não gostou de mim, não sente amor...

[REFRÃO]

[SOLO FINAL] 
-> Aconselho a quem quer aprender esse solo ir na cifra da 
   música original que é: Angra - Bleeding Heart

No final da música ele ainda toca:


e|--19-18--------------19-------
B|--------19-19----16-----------
G|------------------------------
D|------------------------------



* As notas marcadas com asterisco (F*) deve ser batidas assim:

e|-----------x---     Ou seja, dedilha o "A" seguido do "D"
B|-----------x---     e puxa-se as três ultimas (G, B, e).
G|-----------x---     
D|------x--------     Nesse formato: A -> D
A|---x-----------                    G B E

TOP cifras de Daniel

  1. Arribada
  2. Boiada
  3. Consagraçao
  4. Vida de Pescador
  5. Filho Adotivo
  6. Jogado na Rua
  7. Poeira da Estrada
  8. Correnteza de Emoção
  9. Menino da Porteira
  10. A Jiripoca Vai Piar

Pela Web