Cifras Web
David Gilmour

Dimming of the day

David Gilmour

13 acessos

Afinação: D A D G B E

Intro

|-------------2-2p0---------2p0---0-2-3-|---------------------|----------------|
|-----3---3---------3-----3-----3-------|-----2-------3-----5-|-5--7--5--5--3--|
|---2---2---------------2---------------|---2-----------------|-0--0--0--0--0--|
|-0----------0--------0-----------------|-2-----2-2/4---4/5---|-5--5--5--5--5--|
|---------------------------------------|---------------------|----------------|
|---------------------------------------|---------------------|----------------|




|------2-2p0---2p0---------3-3p2p0-0-0-2-|---------------------|
|------------3-----3-----3---------------|-----2-------3-----5-|
|---2------------------2-----------------|---2-----------------|
|-0------------------0-----------------0-|-2-----2-2/4---4/5---|
|----------------------------------------|---------------------|
|----------------------------------------|---------------------|



D                              G5        A
This old house is falling down around my ears

|---------------------|----------------|
|-----2-------3-----5-|-5--7--5--5--3--|
|---2-----------------|-0--0--0--0--0--|
|-2-----2-2/4---4/5---|-5--5--5--5--5--|
|---------------------|----------------|
|---------------------|----------------|



G5                D           A
I'm drowning in a river of my tears

D                            G5      A
When all my will is gone You hold me sway

G5                D       A      D
I need You at the dimming of the day



|---------------------------|-2-------------|
|--------2---3---/5---3-----|---------------|
|--4-----2---2---/4---2-----|---------------|
|----5----------------------|----0----------|
|---------------------------|--------4----2-|
|---------------------------|---------------|



A                                      E
You pull me like the moon pulls on the tide

A                                    E
You know just where I keep my better side
A          D           G5
(uh-uh-uh) (uh-uh-uh) (uh-uh-uh-uh)


D                              G5   A
What days have come to keep us far apart

G                D           A
A broken promise or a broken heart

|------------|
|-5--5--3--3-|
|-0--0--0--0-|
|-5--5--5--5-|
|------------|
|------------|


D                            G5      A
Now all the bonny birds have wheeled away

G5                D       A      D
I need You at the dimming of the day


A                                 E
Come the night You're only what I want

A                              E
Come the night You could be my confidante

A          D           G5
(uh-uh-uh) (uh-uh-uh) (uh-uh-uh-uh)


D                             A
I see You in the street in company

G5                     D                   A
Why don't You come and ease Your mind with me


|-----------------------------2--|
|-7--7---8--8--10--10--12-----3--|
|-----------------------------2--|
|-7--7---9--9--10--10--12--------|
|--------------------------------|
|--------------------------------|



D                                 A
I'm living for the night we steal away

G5                D       A      D
I need You at the dimming of the day

|------------------------------|----3----|
|-----------2---3---/5---3-----|----3----|
|-----4-----2---2---/4---2-----|----0----|
|-------5----------------------|----0----|
|------------------------------|----2----|
|------------------------------|----3----|



G5                D       A      D
I need You at the dimming of the day.

|-----------------------------|-3---2----|
|-----------2---3---/5---3----|-3---3----|
|-----4-----2---2---/4---2----|-0---2----|
|-------5---------------------|-0--------|
|-----------------------------|-2--------|
|-----------------------------|-3--------|





|-----------------------------|---2----|-p-|
|-----------2---3---/5---3----|---3----|-i-|
|-----4-----2---2---/4---2----|---2----|-e-|
|-------5---------------------|--------|-f-|
|-----------------------------|--------|-f-|
|-----------------------------|--------|-e-|

TOP cifras de David Gilmour

  1. Cruise
  2. Sonnet 18
  3. So Far Away
  4. There's no way out of here
  5. Je Crois Entendre Encore
  6. Love on the Air
  7. All Lovers are Deranged
  8. Don't
  9. Cryin Shame
  10. Lets Get Metaphysical

Pela Web