Cifras Web
David Gilmour

On An Island Solo

David Gilmour

12 acessos

THANK YOU JJK FOR YOUR CONSIDERATIONS, I DON?T PUT THE ENGLISH NOTATION FOR THE BENDS 
EXCEED a half down bend.


Enjoy it

Morgan

BASE :
Em C/G Em F# Em C/G Em C/G Em C/G Em C/G Em C/G A
G D/F# F Em  C7 Bb7+ A


SOLO 1


e-------------------------------------|
B---10---10--12-12--------------------|
G-----11------------------------------|
D-------------------------------------|
A-------------------------------------|
E-------------------------------------|



e---------------------------------------|
B---10----------------------------------|
G-------11-9-7-9b-9b--------------------|
D-------------------9/------------------|
A---------------------------------------|
E---------------------------------------|



e---------------------------------------|
B---------------------------------------|
G---------------------------------------|
D---------------5-4--------2------------|
A---------5--7-----------3--------------|
E---5/7-7-------------------------------|



e----------------------------------------------|
B---------------------7--7--7-7--7-7-9-9-------|
G------------------7-----7--7-7--7-7-7-7-------|
D---9h7h5h7---7/9------------------------------|
A----------------------------------------------|
E----------------------------------------------|



e-----------------------------------------|
B-------------10-12/-------15h12----------|
G-------11b-------------------------------|
D-----------------------------------------|
A--7--------------------------------------|
E--8--------------------------------------|



e-------15b-14-15--12-------------------|
B---17-----------------13---------------|
G-------------------------14/-----------|
D---------------------------------------|
A---------------------------------------|
E---------------------------------------|



e--------------------------------------|
B--------------------------------------|
G----------------------4b--4h2h0h2-----|
D-------5-9h7h9-9~~--------------------|
A--5/7---------------------------------|
E--------------------------------------|



e-------------------------------------|
B-------------------------------------|
G--4h2h0h4----------------------------|
D----------2-0-2----------------------|
A-------------------------------------|
E-------------------------------------|



e-------------------------------------|
B-------------------------------------|
G-------------------------------------|
D-------------------------------------|
A-------------------------------------|
E-----3/5---3-2-0---------------------|



e------------------------------------------|
B-------------10-12-10-12-12-10--12-10-----|
G-------------11-12-11-12-12-11--12-11-----|
D------------------------------------------|
A--------5-7-------------------------------|
E---5/7------------------------------------|



e---------------------------------------|
B---------11b---13-11-12b--8h10h8-------|
G---9/11b-------------------------------|
D---------------------------------------|
A---------------------------------------|
E---------------------------------------|



e---------------------------------------|
B---17b---17-15-17----17h15h13----------|
G---------------------------------------|
D---------------------------------------|
A---------------------------------------|
E---------------------------------------|



e---------15--------------15----17------|
B----17b-----15--17----17----17---------|
G---------------------------------------|
D---------------------------------------|
A---------------------------------------|
E---------------------------------------|




e---19b-15------------------------------|
B-----------17b--15---------------------|
G-------------------16-14-12---11h12/11-|
D---------------------------------------|
A---------------------------------------|
E---------------------------------------|




e----12-12b--15-15b-17-19b---19-------|
B-------------------------------------|
G-------------------------------------|
D-------------------------------------|
A-------------------------------------|
E-------------------------------------|


theme


e---15---14---13----13h12h11h12-------|
B---17b--15b--15b---------------------|
G-------------------------------------|
D-------------------------------------|
A-------------------------------------|
E-------------------------------------|



e-11b--11h10h8------------------------|
B--------------11--8-10ha-ha--ha------|
G-------------------------------------|
D-------------------------------------|
A-------------------------------------|
E-------------------------------------|

TOP cifras de David Gilmour

  1. Cruise
  2. Sonnet 18
  3. So Far Away
  4. There's no way out of here
  5. Je Crois Entendre Encore
  6. Love on the Air
  7. All Lovers are Deranged
  8. Don't
  9. Cryin Shame
  10. Lets Get Metaphysical

Pela Web