Cifras Web
David Quinlan

Eu Sou de Cristo

David Quinlan

9 acessos

(intro)  Em C/E Em6 C/E

Em                        C/E
Há um brado ecoando sobre a terra
Em6                                    C/E
De um povo santo destemido e guerreiro
Em                            C/E
Para que entre,o soberano e Rei da glória
Em6                        C/E
E tome o seu lugar

Em                            C/E
Há um ruído se espalhando sobre a terra
Em6                                    C/E
De uma nação que se levanta para a guerra
Em                            C/E
Para que entre,o soberano e Rei da glória
Em6                          C/E
E tome o seu lugar

Em                     G                  A                    C              D
Não vou me calar, eu vou gritar pra todo mundo ouvir
Em                  G                    A   C   D
Cristo vivo está, meu Salvador
Em                       G                  A                    C              D
Não vão me impedir, eu vou viver pra todo mundo ver
Em                        G                    A   C   D
Cristo vive em mim, meu redentor

(interlúdio)  Em

(solo baixo)   Em

                 Em     D/E
Eu sou de Cristo,
                       A/E    C/E
Não me envergonho
            Em   D/E
Por Ele grito,
            A/E    C/E
Pra Ele danço

                 Em     D
Eu sou de Cristo,
                       A    C
Não me envergonho
            Em   D
Por Ele grito,
            A         C D
Pra Ele danço


(riff)  Em D A C
E |--------------------------------------------------------------------------------------------------------------------
B |-------------------------------------------------------------------------------------------------------------------
G |----------------------------------------------2/4-4-2------------------------------------------------------------
D |-0-2-0-2-0-2-0-2-5-2-----0-2-0-2-0--------------5-2--0-2-0-2-0-2-0-2-5-2---4-5-4-5--2-4-2-4--
A |--------------------------------------------------------------------------------------------------------------------
E |--------------------------------------------------------------------------------------------------------------------


--------------------------------------------------------------------------------------------------------------------
-------------------------------------------------------------------------------------------------------------------
----------------------------------------------2/4-4-2------------------------------------------------------------
-0-2-0-2-0-2-0-2-5-2-----0-2-0-2-0--------------5-2--0-2-0-2-0-2-0-2-5-2---4-5-4-5--2-4-2-4--
--------------------------------------------------------------------------------------------------------------------
--------------------------------------------------------------------------------------------------------------------

TOP cifras de David Quinlan

  1. Meu Coração Queima Por Ti
  2. Abraça-me Versão Bossa-Nova
  3. Os Teus Olhos
  4. Poderoso Deus
  5. Oferecemos Tudo
  6. Grande é o Senhor
  7. Abra Os Olhos do Meu Coração
  8. Dia Feliz
  9. Incendeia
  10. Cordas de Amor

Pela Web