Cifras Web
Deadstar Assembly

Insurrection

Deadstar Assembly

8 acessos

tuning: Drop B

.  - palm mute
~  - let ring
\  - slide down
/  - slide up
h  - hammer on
p  - pull off

intro

C#---|-------------|
G#---|-------------|
E----|-------------|
b--0~|-0-0-0~-0-0~-|  x4
F#-0~|-0-0-0~-0-0~-|
B--0~|-0-0-0~-0-0~-|


verse I

||---------------------------------------------------------|
||---------------------------------------------------------|
||---------------------------------------------------------|
||-3p2-0-6-0-000-3p2-0-6-0-0-0-0-3p2-0-6-0-000-3-0-5-0-6---|
||-3p2-0-6-0-000-3p2-0-6-0-0-0-0-3p2-0-6-0-000-3-0-5-0-6---|
||-3p2-0-6-0-000-3p2-0-6-0-0-0-0-3p2-0-6-0-000-3-0-5-0-6---|

           . ...         . . . .         . ...
verse II
||----|
||----|
||----|
||----|  x2
||----|
||000-|
  ...
repeat verse I x2

chorus

||-------------------------------------------|
||-------------------------------------------|
||-------------------------------------------|
||-3-3-3-0-3-5-55-5-3-5/6-00-12\-12\-12\-12\-|
||-3-3-3-0-3-5-55-5-3-5/6-00-12\-12\-12\-12\-|
||-3-3-3-0-3-5-55-5-3-5/6-00-12\-12\-12\-12\-|

                          ..

TOP cifras de Deadstar Assembly

  1. Send Me And Angel
  2. Breathe For Me
  3. Insurrection
  4. Dejected
  5. Killing Myself Again

Pela Web