Cifras Web
Deadstar Assembly

Killing Myself Again

Deadstar Assembly

7 acessos

/ slide
~ let ring
X muted
Y loose mute

1:E
2:B
3:G
4:D
5:A
6:D


|----------------------------------------------------------------------------|
|----------------------------------------------------------------------------|
|----------------------------------------------------------------------------|
|--12/0-10--12--0--6--5--3--5--10--12--0--6--5--3--5--10--12--0--6--5--3--5--|
|--12/0-10--12--0--6--5--3--5--10--12--0--6--5--3--5--10--12--0--6--5--3--5--|
|--12/0-10--12--0--6--5--3--5--10--12--0--6--5--3--5--10--12--0--6--5--3--5--|



|---------------|
|---------------|
|---------------|
|222-2-2-222-2-2|
|222-2-2-222-2-2|
|222-2-2-222-2-2|



|-----------------------------------------------------------------------|
|-----------------------------------------------------------------------|
|-----------------------------------------------------------------------|
|--10--12--0--6--5--3--5--10--12--0--6--5--3--5--10--12--0--6--5--3--5--|
|--10--12--0--6--5--3--5--10--12--0--6--5--3--5--10--12--0--6--5--3--5--|
|--10--12--0--6--5--3--5--10--12--0--6--5--3--5--10--12--0--6--5--3--5--|



|-----------------|
|-----------------|
|-----------------|
|--222-2-2-222-2-2|
|--222-2-2-222-2-2|
|--222-2-2-222-2-2|



|-------------------------------------------|
|-------------------------------------------|
|-------------------------------------------|
|--XXX--X--X--XXX-X-X-XXX-X-X-X-6--6--6--5--|
|--XXX--X--X--XXX-X-X-XXX-X-X-X-6--6--6--5--|
|--XXX--X--X--XXX-X-X-XXX-X-X-X-6--6--6--5--|X3



|--------------------|
|--------------------|
|--------------------|
|--3--5--7--8-10-12--|
|--3--5--7--8-10-12--|
|--3--5--7--8-10-12--|



|-------------------------------------------|
|-------------------------------------------|
|-------------------------------------------|
|--XXX--X--X--XXX-X-X-XXX-X-X-X-6--6--6--5--|
|--XXX--X--X--XXX-X-X-XXX-X-X-X-6--6--6--5--|
|--XXX--X--X--XXX-X-X-XXX-X-X-X-6--6--6--5--|X3



|--------------------|
|--------------------|
|--------------------|
|--3--5--7--8-10-12--|
|--3--5--7--8-10-12--|
|--3--5--7--8-10-12--|



|----------------------------------|
|----------------------------------|
|----------------------------------|
|--0--0--0--0-0-0--y3-y3-y3-y3-y3--|
|--0--0--0--0-0-0--y3-y3-y3-y3-y3--|
|--0--0--0--0-0-0--y3-y3-y3-y3-y3--|X4



|-------------------------------------------|
|-------------------------------------------|
|-------------------------------------------|
|--XXX--X--X--XXX-X-X-XXX-X-X-X-6--6--6--5--|
|--XXX--X--X--XXX-X-X-XXX-X-X-X-6--6--6--5--|
|--XXX--X--X--XXX-X-X-XXX-X-X-X-6--6--6--5--|X3



|--------------------|
|--------------------|
|--------------------|
|--3--5--7--8-10-12--|
|--3--5--7--8-10-12--|
|--3--5--7--8-10-12--|



|--------------------------------------------------------------------------------|
|--------------------------------------------------------------------------------|
|--------------------------------------------------------------------------------|
|--10--12--0--6--5--3--5--0--3--5--0--6--5--3--5--8-8-8-8-8-8-8-8-3-3-3-5-5-5-5--|
|--10--12--0--6--5--3--5--0--3--5--0--6--5--3--5--8-8-8-8-8-8-8-8-3-3-3-5-5-5-5--|
|--10--12--0--6--5--3--5--0--3--5--0--6--5--3--5--8-8-8-8-8-8-8-8-3-3-3-5-5-5-5--|



|------------------------------------------------------------------------------------------|
|------------------------------------------------------------------------------------------|
|------------------------------------------------------------------------------------------|
|--10--12--0--6--5--3--5--0--3--5--0--6--5--3--5--8-8-8-8-8-8-8-8-10-10-10-10-10-10-10-10--|
|--10--12--0--6--5--3--5--0--3--5--0--6--5--3--5--8-8-8-8-8-8-8-8-10-10-10-10-10-10-10-10--|
|--10--12--0--6--5--3--5--0--3--5--0--6--5--3--5--8-8-8-8-8-8-8-8-10-10-10-10-10-10-10-10--|



|--------------------------------------------------------------------------------|
|--------------------------------------------------------------------------------|
|--------------------------------------------------------------------------------|
|--10--12--0--6--5--3--5--0--3--5--0--6--5--3--5--8-8-8-8-8-8-8-8-3-3-3-5-5-5-5--|
|--10--12--0--6--5--3--5--0--3--5--0--6--5--3--5--8-8-8-8-8-8-8-8-3-3-3-5-5-5-5--|
|--10--12--0--6--5--3--5--0--3--5--0--6--5--3--5--8-8-8-8-8-8-8-8-3-3-3-5-5-5-5--|



|------------------------------------------------------------------------------------------|
|------------------------------------------------------------------------------------------|
|------------------------------------------------------------------------------------------|
|--10--12--0--6--5--3--5--0--3--5--0--6--5--3--5--8-8-8-8-8-8-8-8-10-10-10-10-10-10-10-10--|
|--10--12--0--6--5--3--5--0--3--5--0--6--5--3--5--8-8-8-8-8-8-8-8-10-10-10-10-10-10-10-10--|
|--10--12--0--6--5--3--5--0--3--5--0--6--5--3--5--8-8-8-8-8-8-8-8-10-10-10-10-10-10-10-10--|



|-----------------------------|
|-----------------------------|
|-----------------------------|
|--0--0--0--0-0-0-------------|
|--0--0--0--0-0-0-------------|
|--0--0--0--0-0-0-------------|X3




|---------------------|
|---------------------|
|---------------------|
|--0--0--0--8-7-10-3--|
|--0--0--0--8-7-10-3--|
|--0--0--0--8-7-10-3--|



|-------------------------------------------|
|-------------------------------------------|
|-------------------------------------------|
|--XXX--X--X--XXX-X-X-XXX-X-X-X-6--6--6--5--|
|--XXX--X--X--XXX-X-X-XXX-X-X-X-6--6--6--5--|
|--XXX--X--X--XXX-X-X-XXX-X-X-X-6--6--6--5--|X2



|-----------------------------------|
|-----------------------------------|
|-----------------------------------|
|--XXX--X--X--XXX-X-8-7-10-3-3-3-3--|
|--XXX--X--X--XXX-X-8-7-10-3-3-3-3--|
|--XXX--X--X--XXX-X-8-7-10-3-3-3-3--|



|--------------------------------------------------------------------------------|
|--------------------------------------------------------------------------------|
|--------------------------------------------------------------------------------|
|--10--12--0--6--5--3--5--0--3--5--0--6--5--3--5--8-8-8-8-8-8-8-8-3-3-3-5-5-5-5--|
|--10--12--0--6--5--3--5--0--3--5--0--6--5--3--5--8-8-8-8-8-8-8-8-3-3-3-5-5-5-5--|
|--10--12--0--6--5--3--5--0--3--5--0--6--5--3--5--8-8-8-8-8-8-8-8-3-3-3-5-5-5-5--|



|------------------------------------------------------------------------------------------|
|------------------------------------------------------------------------------------------|
|------------------------------------------------------------------------------------------|
|--10--12--0--6--5--3--5--0--3--5--0--6--5--3--5--8-8-8-8-8-8-8-8-10-10-10-10-10-10-10-10--|
|--10--12--0--6--5--3--5--0--3--5--0--6--5--3--5--8-8-8-8-8-8-8-8-10-10-10-10-10-10-10-10--|
|--10--12--0--6--5--3--5--0--3--5--0--6--5--3--5--8-8-8-8-8-8-8-8-10-10-10-10-10-10-10-10--|



|--------------------------------------------------------------------------------|
|--------------------------------------------------------------------------------|
|--------------------------------------------------------------------------------|
|--10--12--0--6--5--3--5--0--3--5--0--6--5--3--5--8-8-8-8-8-8-8-8-3-3-3-5-5-5-5--|
|--10--12--0--6--5--3--5--0--3--5--0--6--5--3--5--8-8-8-8-8-8-8-8-3-3-3-5-5-5-5--|
|--10--12--0--6--5--3--5--0--3--5--0--6--5--3--5--8-8-8-8-8-8-8-8-3-3-3-5-5-5-5--|



|------------------------------------------------------------------------------------------|
|------------------------------------------------------------------------------------------|
|------------------------------------------------------------------------------------------|
|--10--12--0--6--5--3--5--0--3--5--0--6--5--3--5--8-8-8-8-8-8-8-8-10-10-10-10-10-10-10-10--|
|--10--12--0--6--5--3--5--0--3--5--0--6--5--3--5--8-8-8-8-8-8-8-8-10-10-10-10-10-10-10-10--|
|--10--12--0--6--5--3--5--0--3--5--0--6--5--3--5--8-8-8-8-8-8-8-8-10-10-10-10-10-10-10-10--|



|----------------------------------|
|----------------------------------|
|----------------------------------|
|--0~~~~~~~0~~~~~~~0~~~~~~~0~~~~~~~|
|--0~~~~~~~0~~~~~~~0~~~~~~~0~~~~~~~|
|--0~~~~~~~0~~~~~~~0~~~~~~~0~~~~~~~|



|----------------------------------------------------------------------------|
|----------------------------------------------------------------------------|
|----------------------------------------------------------------------------|
|--0--10--12--0--6--5--3--5--0--3--5--0--6--5--3--12--10--12--0--6--5--3--5--|
|--0--10--12--0--6--5--3--5--0--3--5--0--6--5--3--12--10--12--0--6--5--3--5--|  }
|--0--10--12--0--6--5--3--5--0--3--5--0--6--5--3--12--10--12--0--6--5--3--5--|  }

                                                                                }--X3

|-----------------|                                                             }
|-----------------|                                                             }
|-----------------|
|--222-2-2-222-2-2|
|--222-2-2-222-2-2|
|--222-2-2-222-2-2|




|----------------------------------------------------------------------------|
|----------------------------------------------------------------------------|
|----------------------------------------------------------------------------|
|--0--10--12--0--6--5--3--5--0--3--5--0--6--5--3--12--10--12--0--6--5--3--5--|
|--0--10--12--0--6--5--3--5--0--3--5--0--6--5--3--12--10--12--0--6--5--3--5--|
|--0--10--12--0--6--5--3--5--0--3--5--0--6--5--3--12--10--12--0--6--5--3--5--|



|--------------------------------------------------------------------------------|
|--------------------------------------------------------------------------------|
|--------------------------------------------------------------------------------|
|--10--12--0--6--5--3--5--0--3--5--0--6--5--3--5--8-8-8-8-8-8-8-8-3-3-3-5-5-5-5--|
|--10--12--0--6--5--3--5--0--3--5--0--6--5--3--5--8-8-8-8-8-8-8-8-3-3-3-5-5-5-5--|
|--10--12--0--6--5--3--5--0--3--5--0--6--5--3--5--8-8-8-8-8-8-8-8-3-3-3-5-5-5-5--|



|------------------------------------------------------------------------------------------|
|------------------------------------------------------------------------------------------|
|------------------------------------------------------------------------------------------|
|--10--12--0--6--5--3--5--0--3--5--0--6--5--3--5--8-8-8-8-8-8-8-8-10-10-10-10-10-10-10-10--|
|--10--12--0--6--5--3--5--0--3--5--0--6--5--3--5--8-8-8-8-8-8-8-8-10-10-10-10-10-10-10-10--|
|--10--12--0--6--5--3--5--0--3--5--0--6--5--3--5--8-8-8-8-8-8-8-8-10-10-10-10-10-10-10-10--|



|--------------------------------------------------------------------------------|
|--------------------------------------------------------------------------------|
|--------------------------------------------------------------------------------|
|--10--12--0--6--5--3--5--0--3--5--0--6--5--3--5--8-8-8-8-8-8-8-8-3-3-3-5-5-5-5--|
|--10--12--0--6--5--3--5--0--3--5--0--6--5--3--5--8-8-8-8-8-8-8-8-3-3-3-5-5-5-5--|
|--10--12--0--6--5--3--5--0--3--5--0--6--5--3--5--8-8-8-8-8-8-8-8-3-3-3-5-5-5-5--|



|------------------------------------------------------------------------------------------|
|------------------------------------------------------------------------------------------|
|------------------------------------------------------------------------------------------|
|--10--12--0--6--5--3--5--0--3--5--0--6--5--3--5--8-8-8-8-8-8-8-8-10-10-10-10-10-10-10-10--|
|--10--12--0--6--5--3--5--0--3--5--0--6--5--3--5--8-8-8-8-8-8-8-8-10-10-10-10-10-10-10-10--|
|--10--12--0--6--5--3--5--0--3--5--0--6--5--3--5--8-8-8-8-8-8-8-8-10-10-10-10-10-10-10-10--|



|-----------------------------|
|-----------------------------|
|-----------------------------|
|--0--0--0--0-0-0-------------|
|--0--0--0--0-0-0-------------|
|--0--0--0--0-0-0-------------|X3



|-----------|
|-----------|
|-----------|
|--0--0--0--|
|--0--0--0--|
|--0--0--0--|

any corrections email me @
*

TOP cifras de Deadstar Assembly

  1. Send Me And Angel
  2. Breathe For Me
  3. Insurrection
  4. Dejected
  5. Killing Myself Again

Pela Web