Cifras Web
DeFalla

Melô da Popozuda

DeFalla

11 acessos

(intro) 

(riff 1)

|-------------------------------------------------|
|-------------------------------------------------|
|-------------------------------------7--7--------|
|5----7--7----5----7--7----5----7--7--7--7--2-----|
|7----9--9----7----9--9----7----9--9--5--5--2-----|
|7----9--9----7----9--9----7----9--9--------------|


(riff 2)

|-----------
|-----------
|-----------
|5----7--7--
|7----9--9--
|7----9--9--


(riff 3)
|--------
|--------
|--------
|2-------
|2-------
|-------

 (riff 2)
Vai popozuda vai decendo até o chão

Requebrando na batida do Miami Pancadão

 (riff 2) 
Eu tenho a força cavaleiro de Jedi
                             (riff 3) 
Então vem Popozuda vai, vai

(refrão)
 (riff 1) 
Vai popozuda vai po po pozuda
Vai popozuda requebra legal

 (riff 1) 
Vai popozuda vai po po pozuda
Vai popozuda libera geral

 (riff 2) 
É popozuda prá lá, é popozuda pra cá
 (riff 2) 
É popozuda de Ipanema, é popozuda do Irajá
 (riff 2) 
Eu tenho a força cavaleiro de Jedi
                                 (riff 3) 
Então vem popozuda vai

(refrão)
 (riff 1) 
Vai popozuda vai po po pozuda
Vai popozuda requebra legal

 (riff 1) 
Vai popozuda vai po po pozuda
Vai popozuda libera geral

TOP cifras de DeFalla

  1. Amannda
  2. Melô da Popozuda

Pela Web