Cifras Web
Demons & Wizards

Fiddler on The Green

Demons & Wizards

10 acessos

Afinação: Meio Tom Abaixo

1ª eb ou D#
2ª Bb ou A#
3ª Gb ou F#
4ª Db ou C#
5ª Ab ou G#
6ª Eb ou D#

Tom da Música: Abm

1) Introdução com Guitarra Limpa:


eb) ---------------------------------------------------
Bb) -------1-----0-----0-------------1-----3-----0-----
Gb) -----2---2-----2-----2---------2---2-----2-----2---
Db) ---2-------2-----2-----2-----2-------2-----2-----2-
Ab) -0-------------------------0-----------------------
Eb) ---------------------------------------------------



eb) ----------------------------------------------------
Bb) -------1-----0-----0-------------1-----3-----1------
F#) -----2---2-----2-----2---------0---0-----0-----0----
C#) ---2-------2-----2-----2-----2-------2-----2-----2--
Ab) -0-------------------------3------------------------
Eb) ----------------------------------------------------


2) Verso - Guitarra Limpa:
  

eb) -------...-------...---3---    eb)---1---3
Bb) ---1---...---1---...---3---    Bb)---1---3
Gb) ---2---...---0---...---0---    Gb)---2---4
Db) ---2---...---2---...---0---    Db)---3---5
Ab) ---0---...---3---...---2---    Ab)---3---5
Eb) -------...-------...---3---    Eb)---1---3

      Abm        Cb        Gb            E  F#
   (ou G#m)    (ou B)    (ou F#)

3) Solo - Guitarra Lima:
 
                 x2

eb) ---------------------------------
Bb) ---------------------------------
Gb) --2----2--4--5-------5--4---5-4--
Db) ----------------5----------------
Ab) ---------------------------------
Eb) ---------------------------------



eb) -----------------------------------------|---------------------------------
Bb) -------5-5-5-5-5------5------------------|-------5-5-5-5-5------5----------
Gb) --2--------------5-------4---5-4---------|--2--------------5-------4-------
Db) -----------------------------------------|---------------------------------
Ab) -----------------------------------------|---------------------------------
Eb) -----------------------------------------|---------------------------------



eb) ------------------------------------------------------------------------
Bb) --10----10--12--13--12--------12-10-9-10-9---9--------------------------
Gb) ------------------------------------------12---12-10-12-10-9-10-9-------
Db) -------------------------------------------------------------------12---
Ab) ------------------------------------------------------------------------
Eb) ------------------------------------------------------------------------


4) Repete Introdução - Guitarra Limpa:


eb) ---------------------------------------------------
Bb) -------1-----0-----0-------------1-----3-----0-----
F#) -----2---2-----2-----2---------2---2-----2-----2---
C#) ---2-------2-----2-----2-----2-------2-----2-----2-
Ab) -0-------------------------0-----------------------
Eb) ---------------------------------------------------



eb) ----------------------------------------------------
Bb) -------1-----0-----0-------------1-----3-----1------
F#) -----2---2-----2-----2---------0---0-----0-----0----
C#) ---2-------2-----2-----2-----2-------2-----2-----2--
Ab) -0-------------------------3------------------------
Eb) ----------------------------------------------------


5) Repete Verso - Guitarra Limpa:
  

eb) -------...-------...---3---    eb)---1---3
Bb) ---1---...---1---...---3---    Bb)---1---3
Gb) ---2---...---0---...---0---    Gb)---2---4
Db) ---2---...---2---...---0---    Db)---3---5
Ab) ---0---...---3---...---2---    Ab)---3---5
Eb) -------...-------...---3---    Eb)---1---3

      Abm        Cb        Gb            E  F#
   (ou G#m)    (ou B)    (ou F#)

6) Verso - Guitarra Distorcida:
                 x4

eb) --------------------------------------------|    eb)----------------|
Bb) --------------------------------------------|    Bb)----------------|
Gb) ---2-------2---4---5---------5---4---5\4----|    Gb)----10----12----|
Db) ---2-------2---4---5---5-----5---4---5\4----|    Db)----10----12----|
Ab) ---0-------0---2---3---5-----3---2---3\2----|    Ab)----8-----10----|
Eb) -----------------------3--------------------|    Eb)----------------|

     Ab      Ab   Bb  Cb  Gb    Cb  Bb  Cb\Bb              E     F#

7) Solo: Ainda n peguei nao xD

TOP cifras de Demons & Wizards

  1. Loves Tragedy Asunder Intro
  2. Wicked Witch
  3. The Whistler
  4. Winter Of Souls
  5. Beneath These Waves
  6. Blood On My Hands
  7. Crimson King
  8. Heaven Denies
  9. Fiddler on The Green
  10. Down Where I Am

Pela Web