Cifras Web
Demons & Wizards

Path Of Glory

Demons & Wizards

9 acessos

Acoustic Guitar 
Play This for verse sections
      S S S S S S S E  S S S S S S S    S S S E  S S S S S S E  S S S  

D#||--------2-3-2---0--2-----0-2-----|--------3--------------3--------|
A#||------3-------3------3-------3---|------3----3---------3----3-----|
F#||----2----------------------------|----2--------2-----2--------2---|
C#||--0--------------------0-------0-|--3------------3-2------------2-|
G#||---------------------------------|--------------------------------|
C#||---------------------------------|--------------------------------|



  S S S S S S S E  S S S S S S S    S S S E  S S S S S S E  S S S  

--------2-3-2---0--2-----0-2-----|--------3--------------3--------|
------3-------3------3-------3---|------3----3---------3----3-----|
----2----------------------------|----2--------2-----2--------2---|
--0--------------------0-------0-|--3------------3-2------------2-|
---------------------------------|--------------------------------|
---------------------------------|--------------------------------|



  S S S S S S S E  S S S S S S S    S S S E  S S S S S S E  S S S  

--------2-3-2---0--2-----0-2-----|--------3--------------3--------|
------3-------3------3-------3---|------3----3---------3----3-----|
----2----------------------------|----2--------2-----2--------2---|
--0--------------------0-------0-|--3------------3-2------------2-|
---------------------------------|--------------------------------|
---------------------------------|--------------------------------|



  S S S S S S S E  S S S S S S S    S S S E  S S S S S S E  S S S  

--------2-3-2---0--2-----0-2-----|--------3--------------3--------|
------3-------3------3-------3---|------3----3---------3----3-----|
----2----------------------------|----2--------2-----2--------2---|
--0--------------------0-------0-|--3------------3-2------------2-|
---------------------------------|--------------------------------|
---------------------------------|--------------------------------|



  S S S S S S S E  S S S S S S S    S S S E  S S S S S S E  S S S  

--------2-3-2---0--2-----0-2-----|--------3--------------3--------|
------3-------3------3-------3---|------3----3---------3----3-----|
----2----------------------------|----2--------2-----2--------2---|
--0--------------------0-------0-|--3------------3-2------------2-|
---------------------------------|--------------------------------|
---------------------------------|--------------------------------|



  S S S S S S S E  S S S S S S S    S S S E  S S S S S S E  S S S  

--------2-3-2---0--2-----0-2-----|--------3--------------3--------|
------3-------3------3-------3---|------3----3---------3----3-----|
----2----------------------------|----2--------2-----2--------2---|
--0--------------------0-------0-|--3------------3-2------------2-|
---------------------------------|--------------------------------|
---------------------------------|--------------------------------|



  S S S E  S S E  S S E  S S S    S S S E  S S S S S S E  S S S  

--------0------0------0--------|--------0--------------0--------|
------3----3------3------3-----|------3----3---------3----3-----|
----2--------2------2------2---|----2--------2-----2--------2---|
--0--------------------------0-|--3------------3-2------------2-|
-------------------------------|--------------------------------|
-------------------------------|--------------------------------|



  S S S E  S S E  S S E  S S S    S S S E  S S S S S S E  S S S  

--------0------0------0--------|--------0--------------0--------|
------3----3------3------3-----|------3----3---------3----3-----|
----2--------2------2------2---|----2--------2-----2--------2---|
--0--------------------------0-|--3------------3-2------------2-|
-------------------------------|--------------------------------|
-------------------------------|--------------------------------|



  S S S E  S S E  S S E  S S S    S S S E  S S S S S S E  S S S  

--------0------0------0--------|--------0--------------0--------|
------3----3------3------3-----|------3----3---------3----3-----|
----2--------2------2------2---|----2--------2-----2--------2---|
--0--------------------------0-|--3------------3-2------------2-|
-------------------------------|--------------------------------|
-------------------------------|--------------------------------|



  S S S E  S S E  S S E  S S S    S S S E  S S S S S S E  S S S  

--------0------0------0--------|--------0--------------0--------|
------3----3------3------3-----|------3----3---------3----3-----|
----2--------2------2------2---|----2--------2-----2--------2---|
--0--------------------------0-|--3------------3-2------------2-|
-------------------------------|--------------------------------|
-------------------------------|--------------------------------|



  S S S E  S S E  S S E  S S S    S S S E  S S S S S S E  S S S  

--------0------0------0--------|--------0--------------0--------|
------3----3------3------3-----|------3----3---------3----3-----|
----2--------2------2------2---|----2--------2-----2--------2---|
--0--------------------------0-|--3------------3-2------------2-|
-------------------------------|--------------------------------|
-------------------------------|--------------------------------|


Distortion Rhythm, Drop C#
  S S S S E.  S S S S S Q       H        Q.     E   

-----------------------------|---------------------|
-----------------------------|---------------------|
-----------------------------|---------------------|
--5-7-----7---7-5-7-----7----|---------------------|
--3-5-----5---5-3-5-----5----|--3--------5------2--|
------0-0-----------0-0------|--3--------5------2--|



  S S S S E.  S S S S S Q       H        Q.     E   

-----------------------------|---------------------|
-----------------------------|---------------------|
-----------------------------|---------------------|
--5-7-----7---7-5-7-----7----|---------------------|
--3-5-----5---5-3-5-----5----|--3--------5------2--|
------0-0-----------0-0------|--3--------5------2--|



  S S S S E.  S S S S S Q       H        Q.     E   

-----------------------------|---------------------|
-----------------------------|---------------------|
-----------------------------|---------------------|
--5-7-----7---7-5-7-----7----|---------------------|
--3-5-----5---5-3-5-----5----|--3--------5------2--|
------0-0-----------0-0------|--3--------5------2--|



  S S S S E.  S S S S S Q       H        Q.     E     W                 

-----------------------------|---------------------|-------------------|
-----------------------------|---------------------|-------------------|
-----------------------------|---------------------|-------------------|
--5-7-----7---7-5-7-----7----|---------------------|-------------------|
--3-5-----5---5-3-5-----5----|--3--------5------2--|-------------------|
------0-0-----------0-0------|--3--------5------2--|-------------------|


(acoustic)

  W                   S S S S E.  S S S S S Q       H        Q.     E   

-------------------|-----------------------------|---------------------|
-------------------|-----------------------------|---------------------|
-------------------|-----------------------------|---------------------|
-------------------|--5-7-----7---7-5-7-----7----|---------------------|
-------------------|--3-5-----5---5-3-5-----5----|--3--------5------2--|
-------------------|------0-0-----------0-0------|--3--------5------2--|



  S S S S E.  S S S S S Q       H        Q.     E   

-----------------------------|---------------------|
-----------------------------|---------------------|
-----------------------------|---------------------|
--5-7-----7---7-5-7-----7----|---------------------|
--3-5-----5---5-3-5-----5----|--3--------5------2--|
------0-0-----------0-0------|--3--------5------2--|



  S S S S E.  S S S S S Q       H        Q.     E   

-----------------------------|---------------------|
-----------------------------|---------------------|
-----------------------------|---------------------|
--5-7-----7---7-5-7-----7----|---------------------|
--3-5-----5---5-3-5-----5----|--3--------5------2--|
------0-0-----------0-0------|--3--------5------2--|



  S S S S E.  S S S S S Q       H        Q.     E   

-----------------------------|---------------------|
-----------------------------|---------------------|
-----------------------------|---------------------|
--5-7-----7---7-5-7-----7----|---------------------|
--3-5-----5---5-3-5-----5----|--3--------5------2--|
------0-0-----------0-0------|--3--------5------2--|



  S S S S E.  S S S S S Q       H        Q.     E   

-----------------------------|---------------------|
-----------------------------|---------------------|
-----------------------------|---------------------|
--5-7-----7---7-5-7-----7----|---------------------|
--3-5-----5---5-3-5-----5----|--3--------5------2--|
------0-0-----------0-0------|--3--------5------2--|



  S S S S  S S S S S S S S  S S S S    Q    S S S Q    S S S S S  

------------------------------------|----------------------------|
------------------------------------|----------------------------|
------------------------------------|----------------------------|
--5-7-----10-7-----5-7-----10-7-----|----------------------------|
--3-5------8-5-5-5-3-5------8-5-5-5-|--3----L-----5------0-3-5-3-|
------0-0--------------0-0----------|--3----3-0-3-5----3---------|



  S S S S  S S S S S S S S  S S S S    Q    S S S Q    S S S S S  

------------------------------------|----------------------------|
------------------------------------|----------------------------|
------------------------------------|----------------------------|
--5-7-----10-7-----5-7-----10-7-----|------------------------3-0-|
--3-5------8-5-5-5-3-5------8-5-5-5-|--5----L-----7------0-3-----|
------0-0--------------0-0----------|--5----L-3-5-7----5---------|



  S S S S  S S S S S S S S  S S S S    Q    S S S Q    S S S S S  

------------------------------------|----------------------------|
------------------------------------|----------------------------|
------------------------------------|----------------------------|
--5-7-----10-7-----5-7-----10-7-----|----------------------------|
--3-5------8-5-5-5-3-5------8-5-5-5-|--3----L-----5------0-3-5-3-|
------0-0--------------0-0----------|--3----3-0-3-5----3---------|



  S S S S  S S S S S S S S  S S S S    Q    S S S Q    S S S S S  

------------------------------------|----------------------------|
------------------------------------|----------------------------|
------------------------------------|----------------------------|
--5-7-----10-7-----5-7-----10-7-----|------------------------3-0-|
--3-5------8-5-5-5-3-5------8-5-5-5-|--5----L-----7------0-3-----|
------0-0--------------0-0----------|--5----L-3-5-7----5---------|



                   |--3-|                                   
  H         E  S S T  T T S S S    H        E  S S S S S S  

--------------------------------|--------------------------|
--------------------------------|--------------------------|
--------------------------------|--------------------------|
--------------------------------|--------------3---3-5---2-|
--5~--------L--8---8-10-8-7-3-7-|--3--------L--------------|
--------------------------------|--------------------------|



                   |--3-|                                   
  H         E  S S T  T T S S S    H        E  S S S S S S  

--------------------------------|--------------------------|
--------------------------------|--------------------------|
--------------------------------|--------------------------|
--------------------------------|--------------3---3-5---2-|
--5~--------L--8---8-10-8-7-3-7-|--3--------L--------------|
--------------------------------|--------------------------|



  E.   E.  E.  E.  S S S S    S S S S E.  S S S S S Q       H        Q.     E   

---------------------------|-----------------------------|---------------------|
---------------------------|-----------------------------|---------------------|
--3b---3---2---------------|-----------------------------|---------------------|
---------------5---7-5-3-2-|--5-7-----7---7-5-7-----7----|---------------------|
---------------------------|--3-5-----5---5-3-5-----5----|--3--------5------2--|
---------------------------|------0-0-----------0-0------|--3--------5------2--|



  S S S S E.  S S S S S Q       H        Q.     E   

-----------------------------|---------------------|
-----------------------------|---------------------|
-----------------------------|---------------------|
--5-7-----7---7-5-7-----7----|---------------------|
--3-5-----5---5-3-5-----5----|--3--------5------2--|
------0-0-----------0-0------|--3--------5------2--|



  S S S S E.  S S S S S Q       H        Q.     E   

-----------------------------|---------------------|
-----------------------------|---------------------|
-----------------------------|---------------------|
--5-7-----7---7-5-7-----7----|---------------------|
--3-5-----5---5-3-5-----5----|--3--------5------2--|
------0-0-----------0-0------|--3--------5------2--|



  S S S S E.  S S S S S Q       H        Q.     E   

-----------------------------|---------------------|
-----------------------------|---------------------|
-----------------------------|---------------------|
--5-7-----7---7-5-7-----7----|---------------------|
--3-5-----5---5-3-5-----5----|--3--------5------2--|
------0-0-----------0-0------|--3--------5------2--|



  S S S S E.  S S S S S Q       H        Q.     E   

-----------------------------|---------------------|
-----------------------------|---------------------|
-----------------------------|---------------------|
--5-7-----7---7-5-7-----7----|---------------------|
--3-5-----5---5-3-5-----5----|--3--------5------2--|
------0-0-----------0-0------|--3--------5------2--|



  S S S S E.  S S S S S Q       H        Q.     E   

-----------------------------|---------------------|
-----------------------------|---------------------|
-----------------------------|---------------------|
--5-7-----7---7-5-7-----7----|---------------------|
--3-5-----5---5-3-5-----5----|--3--------5------2--|
------0-0-----------0-0------|--3--------5------2--|



  S S S S E.  S S S S S Q       H        Q.     E   

-----------------------------|---------------------|
-----------------------------|---------------------|
-----------------------------|---------------------|
--5-7-----7---7-5-7-----7----|---------------------|
--3-5-----5---5-3-5-----5----|--3--------5------2--|
------0-0-----------0-0------|--3--------5------2--|



                   |--3-|                                   
  H         E  S S T  T T S S S    H        E  S S S S S S  

--------------------------------|--------------------------|
--------------------------------|--------------------------|
--------------------------------|--------------------------|
--------------------------------|--------------3---3-5---2-|
--5~--------L--8---8-10-8-7-3-7-|--3--------L--------------|
--------------------------------|--------------------------|



                   |--3-|                                   
  H         E  S S T  T T S S S    H        E  S S S S S S  

--------------------------------|--------------------------|
--------------------------------|--------------------------|
--------------------------------|--------------------------|
--------------------------------|--------------3---3-5---2-|
--5~--------L--8---8-10-8-7-3-7-|--3--------L--------------|
--------------------------------|--------------------------|



  E.   E.  E.  E.  S S S S    S S Q.      H          

---------------------------|-----------------------||
---------------------------|-----------------------||
--3b---3---2---------------|-----------------------||
---------------5---7-5-3-2-|--2-3-3~---------------||
---------------------------|-----------------------||
---------------------------|-----------------------||


Lead Guitar - Drop C#
                                                                   
                                         |---3---|                              
   Q.       S S  Q.      E       E       S   S   S   S T T S E.  T T S S S S S  

----------------------------|--------------------------------------------------|
--17b------17---17b------L--|--------------------------------------------------|
--17-------17---17-------L--|--------------------------------------------------|
----------------------------|--9br-----L-7-9-7-----------------3-5-5-3-|
----------------------------|--------------------------5-3-8-5---5-3-5---------|
----------------------------|--------------------------------------------------|



           W                              
   E    S  Q     S  E    S  E    S  E     

-----------------------------------------|
------------------------13------13-------|
--10b--------------12b-----12b-----16br--|
-------12-12----10-14------14------14----|
-----------------------------------------|
-----------------------------------------|



                       W                   
  S  S  S  S  S  S  S  Q     S  S  S  E    

------------------------------------------|
------------------------------------------|
--L-------------------------14-19-14-17b--|
--L----------------15---------------------|
----15-17-15-17-15----17------------------|
------------------------------------------|



   E    H           S  S  S.   T  S  S  

---------------------------------------|
---------------------------------------|
--17b--17b~--------17-14---------------|
-------------------------15br-12-17-17-|
---------------------------------------|
---------------------------------------|



   S.   T  S  S  S   T  S   T  S   T  S   T  S   T  S   T  S   T  S   T  

------------------------------------------------------------------------|
------------------------------------------------------------------------|
--------------------12-----12-----12-----12-----12-----12-----12-----12-|
--15br-12-17-17-13b----13b----13b----13b----13b----13b----13b----13b----|
------------------------------------------------------------------------|
------------------------------------------------------------------------|



   S   T  S   T  S   T  S   T  S   T  T  H          

---------------------------------------------------|
---------------------------------------------------|
------12-----12-----12-----12----------------------|
--13b----13b----13b----13b----13b-12----12~--------|
-------------------------------------15------------|
---------------------------------------------------|



   S  S  S  S  S  S  S  S  S  S  S  S  S  S  S  S  

--------------------------------------------------|
--------------------------------------15-13-15-18-|
--------------------14----15-14-17-15-------------|
--14-12-15-14-17-15----17-------------------------|
--------------------------------------------------|
--------------------------------------------------|



                       |--3--|                                                 
   H         E   S  S  T  T  T  S  S  S     S  S  S  S S S S S Q     S  S  E   

--15~--------L--15-13-12-13-12----------|---------------------------13-15-17--|
-------------------------------13-17-13-|-------------------------------------|
----------------------------------------|--14-12------------------------------|
----------------------------------------|--------15-14------------------------|
----------------------------------------|--------------5-3--------------------|
----------------------------------------|------------------7-5-3--------------|



   E.    E.    E.    E.    S  S  S  S  

--17b---17~---14b---13~---12-13-12-10-|
--------------------------------------|
--------------------------------------|
--------------------------------------|
--------------------------------------|
--------------------------------------|



   Q      Q       S  S  S  S  S  S  S  S     E.    E.   E.   E.   S  S  S S  

--20b------------------------------------|----------------------------------|
---------13b~----------------------------|----------------------------------|
-----------------17-15-14-15-------------|--15b---15---14---12---14-12-10-9-|
-----------------------------19-17-15-14-|----------------------------------|
-----------------------------------------|----------------------------------|
-----------------------------------------|----------------------------------|



  H         H           W                   W                 

---------------------|-------------------|-------------------|
---------------------|-------------------|-------------------|
--9b-----------------|-------------------|-------------------|
---------------------|-------------------|-------------------|
---------------------|-------------------|-------------------|
---------------------|-------------------|-------------------|



  W                   W                   W                 

-------------------|-------------------|-------------------|
-------------------|-------------------|-------------------|
-------------------|-------------------|-------------------|
-------------------|-------------------|-------------------|
-------------------|-------------------|-------------------|
-------------------|-------------------|-------------------|



   H        E   S S  S  S  S  S     H        E   S  S  S  E.   

--------------------------------|-----------------------------|
--------------------------------|-----------------------------|
--------------------------------|-----------------------------|
--12-----------15---15-14-10-14-|--10--------L--14-10-14-15---|
--------------------------------|-----------------------------|
--------------------------------|-----------------------------|



   H        E   S S  S  S  S  S     H        E   S  S  S  E.   

--------------------------------|-----------------------------|
--------------------------------|-----------------------------|
--------------------------------|-----------------------------|
--12-----------15---15-14-10-14-|--10--------L--14-10-14-15---|
--------------------------------|-----------------------------|
--------------------------------|-----------------------------|



   H        E   S S  S  S  S  S     H        E   S  S  S  S  S  S  

--------------------------------|---------------------------------|
--------------------------------|---------------------------------|
--------------------------------|---------------------------------|
--12-----------15---15-14-10-14-|--10--------L--12-12-15-15-17-17-|
--------------------------------|---------------------------------|
--------------------------------|---------------------------------|



      S  S  S  Q    S     S  S  S  Q    S  

------------------------------------------|
------------------------------------------|
--12g14-14-15-14----L-12g14-14-15-14----L-|
------------------------------------------|
------------------------------------------|
------------------------------------------|



      Q     S  S  S  Q    S  S  S  E      H        S  S  S  S  S  E   S  

--------------------------------------|---------------------------------|
--------------------------------------|--13--------L-17-18-17-15-15--13-|
--------------------------------------|---------------------------------|
--17g15----15-17-19-17----L-15-14-10--|---------------------------------|
--------------------------------------|---------------------------------|
--------------------------------------|---------------------------------|



                                                      |---3---|   
   H        S  S  S  S  S  E   S     H        E   E   E   E   E   

---------------------------------|-------------------------------|
--13--------L-17-18-17-15-15--13-|--10--------L--10--10--12--13--|
---------------------------------|-------------------------------|
---------------------------------|-------------------------------|
---------------------------------|-------------------------------|
---------------------------------|-------------------------------|



              |------3-----|     
   H          Q      Q     Q     

--------------------------------|
--10b--------13b----13----11----|
--------------------------------|
--------------------------------|
--------------------------------|
--------------------------------|



   S  S  S  S  S  S  S  S  S  S  S  S  S S S S    S S Q.      H          

-----------------------------------------------|-----------------------||
--17-18-17-15-17-15-13-15-13-11-13-11-10-8-6-5-|--5-6-6~---------------||
-----------------------------------------------|-----------------------||
-----------------------------------------------|-----------------------||
-----------------------------------------------|-----------------------||
-----------------------------------------------|-----------------------||





Duration Legend

---------------

W - whole
H - half
Q - quarter
E - 8th
S - 16th
T - 32nd
X - 64th
. - note dotted


Tablature Legend
-
---------------

L - tied note
x - dead note
(n) - ghost note
> - accentuded note
NH - natural harmonic
AH - artificial harmonic
TH - tapped harmonic
SH - semi harmonic
PH - pitch harmonic
h - hammer on
p - pull off
b - bend
br - bendRelease
pb - preBend
pbr - preBendRelease
brb - bendReleaseBend
\n/ - tremolo bar dip
\n - tremolo bar dive
-/n - tremolo bar Release up
/n\ - tremolo bar inverted dip
/n - tremolo bar return
-\n - tremolo bar Release down
S - shift slide
s - legato slide
/ -  slide into from below or out of upwards
\ -  slide into from above or out of downwards
~ - vibrato
W - wide vibrato
tr - trill
TP - tremolo picking
T - tapping
S - slap
P - pop
< - fade in
^ - brush up
v - brush down


TOP cifras de Demons & Wizards

  1. Loves Tragedy Asunder Intro
  2. Wicked Witch
  3. The Whistler
  4. Winter Of Souls
  5. Beneath These Waves
  6. Blood On My Hands
  7. Crimson King
  8. Heaven Denies
  9. Fiddler on The Green
  10. Down Where I Am

Pela Web