Cifras Web
DevilDriver

I Could Care Less

DevilDriver

9 acessos

Legend
.  - palm mute           /  - slide up to
\  - slide down to       ~  - vibrato
p  - pull off            Suffixes for bend
t  - tap                 f  - full bend    h - half bend
ph - pinched harmonic    q  - quarter bend t - tap bend
*  - see comment         ^  - Hold bend    r release bend
,  - slight palm mute    () - ghost note, sustained note
"  - tremolo note         - Trill
0vol>>> - volume off to volume up




Tunning B F# B E G# C#

Intro
Gtr I

|--------------------------------------|
|-18-----18-----20-----22--------20h22-|
|---19-19--19-19--19-19--19-19-19------|
|--------------------------------------|
|--------------------------------------|
|--------------------------------------|


Gtr II

|--------------------------------------|
|--------------------------------------|
|--------------------------------------|
|--------------------------------------|
|-0------------------------------------|
|-0------------------------------------|

0vol>>>


|--------------------------------------|
|--------------------------------------|
|--------------------------------------|
|--------------------------------------| Repeat X4
|-3-0----------------------------------|
|-3-0----------------------------------|



|--------------------------------------|
|--------------------------------------|
|--------------------------------------|
|--------------------------------------| Repeat X4
|-3-0----------------------------------|
|-3-0---0-000-0-000----000--000--000---|

        . ... . ...    ...  ...  ...

Riff 1
Gtr I

|---------------------------------|
|---------------------------------|
|---------------------------------|
|---------------------------------|
|-3-0---3-0---3-0---3-0---2-2-2-2-|
|-3-0---3-0---3-0---3-0---2-2-2-2-|


Gtr II

|---------------------------------|
|-18-----18-----------------------|
|---19-19--19---------------------|
|---------------------------------| This only X4
|---------------------------------|
|---------------------------------|



Riff 2

|--------------------------------|
|--------------------------------|
|--------------------------------|
|--------------------------------|
|--------------------------0--5--|
|-0-5-8-0-5-8-0-5-8-0-5-8--0--5--|

                           .


|--------------------------------|
|--------------------------------|
|--------------------------------|
|--------------------------------|
|--------------------------0--8--|
|-0-5-8-0-5-8-0-5-8-0-5-8--0--8--|

                           .

Chorus

|---------------------------|
|---------------------------|
|---------------------------|
|---------------------------| Repeat X2 (this are the silences)
|-8\1/4--0---0---0-0-1--4--0|
|-8\1/4--0---0---0-0-1--4--0|



|-------------------------------|
|-------------------------------|
|-------------------------------|
|-------------------------------| Repeat X2
|-8\1/4--0---0---0-0-1--4--0----|
|-8\1/4--0---0---0-0-1--4--0----|



X4  Play Intro Gtr I w/Riff 1 Gtr I
X4  Play Riff 1 Gtr I
X2½ Play Riff 2


|-------------------------------|
|-------------------------------|
|-------------------------------|
|-------------------------------| Repeat X2
|-8\1/4--0---0---0-0-1--4--0----|
|-8\1/4--0---0---0-0-1--4--0----|



|---------------------------|
|---------------------------|
|---------------------------|
|---------------------------|
|-8\1/4--0---0---0-0-1--4--0|
|-8\1/4--0---0---0-0-1--4--0|



|-------------------------------|
|-------------------------------|
|-------------------------------|
|-------------------------------|
|-8\1/4--0---0---0-0-1--4--0----|
|-8\1/4--0---0---0-0-1--4--0----|



Now play Intro Gtr I

Gtr II

|---------------------------|
|---------------------------|
|---------------------------|
|---------------------------|
|-8\1/4--0-------1--4--0----|
|-8\1/4--0-------1--4--0----|




|---------------------------|
|---------------------------|
|---------------------------|
|---------------------------| Repeat X2
|---------------------------|
|-8\1/4--0-------1--4--0----|



Outro w/Gtr I

|-----------------|
|-----------------|
|-----------------|
|-----------------| Repeat X3
|-----------------|
|-111114444400000-|

  ...............


|-----------------|
|-----------------|
|-----------------|
|-----------------|
|-1-1-1-4-4-4-0---|
|-1-1-1-4-4-4-0---|


END

TOP cifras de DevilDriver

  1. Pale Horse Apocalypse
  2. Clouds Over California
  3. Grinfucked
  4. Hold Back The Day
  5. The Mountain
  6. Die And Die Now
  7. Before The Handmans Noose
  8. Impending Disaster
  9. Just Run
  10. Meet The Wretched

Pela Web