Cifras Web
Diego Filipe

Câmera Lenta

Diego Filipe

6 acessos

Intro:(F Gm A# A#m F C)

1ª Parte
F                                                                  Gm                                                A#                          A#m            F         C 

E| -------------------------------------------------------------------------------------------------------------------------
A|-0~2-2-0-0~2-2-0-0~2-2-0-0~2-3-5-2-0-----------------------------------------------------------------------------
D|---------------------------------------------3-3~5-5-3-3~5-5-3-3~5-7-8-5-3-0-0~3-3-0-0~3-3-0-0~3-3-5-7-8-7-5
G| --------------------------------------------------------------------------------------------------------------------------
B|---------------------------------------------------------------------------------------------------------------------------
E|--------------------------------------------------------------------------------------------------------------------------


2ª Parte
F                                                  Gm                                  A#      A#m   F       C

E|--------------------------------------------------------------------------------------------------------------------------
A|-0~2-2-0-0~2-2-0-2-0-2-3-5-0------------------5-3-2--------5 ------------------------------------------------------
D| -----------------------------------3-3~5-5-3-5-3--------3-3-5---3-5~7-8-7-5-----------------------------------------
G| ---------------------------------------------------------------------------------------------------------------------------
B|------------------------------------------------------------------------------------8---------------------------------------
E|--------------------------------------------------------------------------------------7-------------------------------------

F                                     Gm
Quando vejo os teus olhos
                               A#
O tempo para pra mim
                  A#m             F     C
E eu esqueço o que é sofre....er
F                             Gm
Meu coração dispara
                                  A#
Vejo você sorrir pra mim
   A#m              F  C
Como é bom ti ter

Refrão:

       F                          
Você é meu ar, meu amor,
                             Gm
Minha fé, minha vida

Meu raio de sol
                        A#
Minha lua querida
                  A#m                 F       C
Deus nos uniu para gente vive......er
     F                                   
Tu és o azul do meu céu
                     Gm
O brilho do mar

Minha deusa, rainha
                         A#
Sempre vou te amar
                    A#m         F   C
Jamais poderei te esquecer

Solo

E| -----------------------------------------------------------------------------------------
A| -5-3-2------------------3-2-0----------------5-5~7-5-5-7------------------------
D| ---------3-3~5-3-3~5---------3-3~5-3~5-3---------------5-------------------
G| ----------------------------------------------------------------------------------------

B|-----------------------------------------------------------------------------------------
E|------------------------------------------------------------------------------------------



F                            Gm
Sentindo o seu cheiro

O brilho do sol 
                                A#
Reflete em seus cabelos
                          A#m                   F         C
O ar que eu respiro se chama "Você........ê”
F                               Gm
Olhando em seus olhos
                                                      A#
Parece que tudo está em câmera lenta
                    A#m                  F   C
Como nos filmes que eu vi na tv.

Refrão:
   
    F                          
Você é meu ar, meu amor,
                             Gm
Minha fé, minha vida

Meu raio de sol
                        A#
Minha lua querida
                  A#m                 F       C
Deus nos uniu para gente vive......er
     F                                   
Tu és o azul do meu céu
                     Gm
O brilho do mar

Minha deusa, rainha
                         A#   A#m
Sempre vou te amar
                               F     C   F
Nunca Vou te Esquece.......er.

TOP cifras de Diego Filipe

  1. O Que É Que Tem
  2. Te Trouxe Esta Canção
  3. Vem Me Dar Prazer
  4. Ai Se Eu Te Pego
  5. Te Esperando
  6. Câmera Lenta
  7. Furdúncio
  8. Sozinho

Pela Web