Cifras Web
Dimmu Borgir

Borderskapets Ring

Dimmu Borgir

6 acessos

Broderskapets Ring

Riff 1:

|-----------------------------------------------------------------|
|-----------------------------------------------------------------|
|-----------------------------------------------------------------|
|-9-9-9-9-9-9-----------------------------------------------------|
|-7-7-7-7-7-7--7-7-7-7-7-7--10-10-10-10-10-10--12-12-12-12-12-12--|
|--------------5-5-5-5-5-5--8--8--8--8--8--8---10-10-10-10-10-10--|



Riff 2:

|-----------------------------------------------------------------------|
|-----------------------------------------------------------------------|
|-----------------------------------------------------------------------|
|-----------------------------------------------------------------------|
|-7-7-7-7-7-7--10-10-10--9--10-12--14-14-14-14-14-14-14-14-14-14-14-14--|
|-5-5-5-5-5-5--8--8--8---7--8--10--12-12-12-12-12-12-12-12-12-12-12-12--|



Riff 3:

|-----------------------------------------------------------|
|-----------------------------------------------------------|
|-----------------------------------------------------------|
|-7-7-7-7-7-7--10-10-10-10-10-10----------------------------|
|-5-5-5-5-5-5--8--8--8--8--8--8--7-7-7-7-7-7--3-3-3--5-5-5--|
|--------------------------------5-5-5-5-5-5--1-1-1--3-3-3--|


Guitar 2:

|------------------------------------------------------|
|------------------------------------------------------|
|------------------------------------------------------|
|-------7------------7---------------------------------|
|-5-7-8---8-7--5-7-8---8-7--7-7-7-7-7-7--3-3-3--5-5-5--|
|---------------------------5-5-5-5-5-5--1-1-1--3-3-3--|



Riff 1: x6
Riff 2: x4
Riff 1: x4
Riff 3: x4
Riff 2: x4
Riff 3: x10 until fade out

*

TOP cifras de Dimmu Borgir

  1. Alt Lys Er Svunnet Hen
  2. Gateways
  3. Det Nye Riket
  4. Sacrilegious Scorn
  5. Sorgens Kammer
  6. Sorgens Kammer Intro
  7. Serpentine Offering
  8. Sorgens Kammer - Dell II
  9. Fundamental Alienation Intro
  10. Antkrist

Pela Web