Cifras Web
Divididos

Despiertate Nena

Divididos

8 acessos

******************************
******************************
(Cover de Luis Alberto Spinetta)

DISCO: VENGO DEL PLACARD DE OTRO (2002)

HECHO POR: JUAN ANGEL DE CAMILLIS.


AFINCACION: Normal (E-A-D-G-B-e).


Cualquier correción, sugerencia, mandame un mail a *, espero que les
sea de utilidad.

INTRO:(Con delay)

e|----------0-0~---------0-0~------------------------------||
B|----------6-6~---------6-6~------------------------------||
G|----------5-5~---------5-5~------------------------------||
D|----------4-4~---------4-4~------------------------------||
A|-----3h5--5-5~----3h5--5-5~----3h5---5-3-----------------||
E|---5/-----------5/-----------5/-----------5-4-3----------||



VERSO:(Con delay)

e|----------0-0~---------0-0~----------0-0~-------------------||
B|----------6-6~---------6-6~----------6-6~-------------------||
G|----------5-5~---------5-5~----------5-5~-------------------||
D|----------4-4~---------4-4~----------4-4~-------------------||
A|-----3h5--5-5~----3h5--5-5~-----3h5--5-5~-------------------||
E|---5/-----------5/------------5/----------------------------||


 "Ya despiertate nena, sube al rayo al fin..."


e|--3-3-3-3-3-3-3-3-3-3-3-3---------0-0--||
B|--3-3-3-3-3-3-3-3-3-3-3-3---------6-6--||
G|--4-4-4-4-4-4-4-4-4-4-4-4---------5-5--||
D|--3-3-3-3-3-3-3-3-3-3-3-3---------4-4--||
A|--5-5-5-5-5-5-5-5-5-5-5-5----3h5--5-5--||
E|--3-3-3-3-3-3-3-3-3-3-3-3--5/----------||


 "Ya despirtate rayo suuuube a la nena..."

ESTRIBILLO:

e|--5-5-5-5-5-5--6-6-6-6-6--8--8--8--8--8--8------0-0-0--||
B|--5-5-5-5-5-5--6-6-6-6-6--8--8--8--8--8--8------6-6-6--||
G|--6-6-6-6-6-6--7-7-7-7-7--9--9--9--9--9--9------5-5-5--||
D|--5-5-5-5-5-5--6-6-6-6-6--8--8--8--8--8--8------4-4-4--||
A|--7-7-7-7-7-7--8-8-8-8-8-10-10-10-10-10-10------5-5-5--||
E|--5-5-5-5-5-5--6-6-6-6-6--8--8--8--8--8--8--0-0--------||


 "Y asi verás    lo tierno y dulce que es amar..."



SOLO: (El solo es muy confuso, tiene muchos efectos, pero podes improvisarte algo en

Re menor).

TOP cifras de Divididos

  1. Capo Capón
  2. Azulejo
  3. Spaghetti Del Rock
  4. El Burrito Base
  5. Tanto Anteojo (riff)
  6. El Arriero
  7. Quien Se Ha Tomado Todo El Vino
  8. Andá a Lavártelos
  9. Aburridos Peligrosos
  10. Pepe Lui

Pela Web